PrimaNota.ru - самый крупный в мире бесплатный архив песенных текстов, аккордов, табулатур и нот


Челенжер - Футбольный хулиган - аккорды и текст, видео

Регистрация Запомнить меня
Войти через:  Facebook Google Twitter Vk Yandex Mail.ru

Челенжер - Футбольный хулиган - аккорды и текст, видео

Печатать
Просмотров: 116
Футбольный хулиган
Челенжер
Проигрыш:
E||-------------------------|
B||-------------------------|
G||--6--8--6----6--8--6-----|
D||-------------------------|
A||-------------------------|
E||-------------------------|

--------------------------|--------------------------|
--------------------------|--------------------------|
9--11--9----9--11--9------|--------------------------|
--------------------------|--9--11--9----9--11--9----|
--------------------------|--------------------------|
--------------------------|--------------------------|

--------------------------||
--------------------------||
------------------9--8----||
--7----7--6----6----------||
--------------------------||
--------------------------||

C#5 E5 (12) B5 A5 G#5

C#5 A5
Просыпаясь точно знаешь,
E5 (12) B5 A5 G#5
Где и с кем, что отмечаешь,
C#5 A5
График твой не для меня -
E5 (12) B5 A5 G#5
Я устала от вранья...
Каждый день проблемы сборы,
Ни о чём все разговоры,
В твоей жизни я как тень
Проходил так каждый день....

Припев:
C#5
Ты футбольный Хулиган!
E5 (12)
Твоя жизнь сплошной обман,
B5
И не верю ни одному
A5 G#5
Я твоему слову..
Каждый день на веселе
Ты почему-то дорог мне,
Но надеюсь позвонишь
Мне завтра снова..
(2 раза)

На всё забил ради футбола,
Где ещё найти такого..
Кутяжи день изо дня
От чего гавно жизнь твоя.
Год за годом проходили
В поездах жизнь колесили,
Больше мне побед не надо,
Но в толпе пересеклись мы взглядом....
...

Припев

(Финальная часть - аккорды как в припеве)
...И мечту свою искал.. 
Всё что можно потерял.. 
вынимал и раздовал, всё проще простого..
Становился всё сильней!
Прежних потерял друзей!
Не вернуть тех добрых дней,
Не сделать такого!!!
ТЫ ФУТБОЛЬНЫЙ ХУЛИГАН!!!
Твоя жизнь сплошной обман,
И не верю ни одному
Я твоему слову..
Каждый день на веселе
Ты почему-то дорог мне,
Но надеюсь позвонишь
Мне завтра снова..
Добавлено: 06.04.2016
Другие материалы по этой песне:
  • Аккорды и текст

Страница создана 06.04.2016
http://primanota.ru/chelenzher/futbolnyi-xuligan-chords.htm
Привет, Гость.
Предлагаем пройти революционный курс по гитаре.
Подарок от PrimaNota.Ru, забирай!