PrimaNota.ru - самый крупный в мире бесплатный архив песенных текстов, аккордов, табулатур и нот


Chela - Romanticise - аккорды и текст, видео

Регистрация Запомнить меня
Войти через:  Facebook Google Twitter Vk Yandex Mail.ru

Chela - Romanticise - аккорды и текст, видео

Печатать
Просмотров: 206
Romanticise
Chela
--------------------------------------------------------------------------------------------------
                                      ROMANTICISE - Chela
--------------------------------------------------------------------------------------------------
Tabbed by:ndermawan
E-mail:ndermawan@yahoo.com

Tuning: Full step down. E becomes D

Reference: https://soundcloud.com/kitsune-maison/chela-romanticise
           https://www.youtube.com/watch?v=b3zf77RcGaI

Wow what a gal! Epic voice, epic dancing and great beat 

Chords used
-----------

    B   E  G#m C#m7 F# | G#m7 D#m7 E  C#m7
                       |
e|--------------4---2--|--11---6---7---4-------------------------------------|
B|--------------5---2--|--12---7---9---5-------------------------------------|
G|--8---1---4---4---3--|--11---6---9---6-------------------------------------|
D|--9---2---6---6---4--|--13---8---9---6-------------------------------------|
A|--9---2---6---4---4--|--11---6---7---4-------------------------------------|
E|--7---0---4-------2--|-----------------------------------------------------|



Intro synth:                                                                            
------------
                                                                                (0.00 - 0.08)
e|---------------------------------------------------------------------------|
B|---------------------------------------------------------------------------|
G|-----8-8----1-1----4-4----4-4----8-8----1-1----4-4----4-4------------------|
D|-----9-9----2-2----6-6----6-6----9-9----2-2----6-6----6-6------------------|
A|---------------------------------------------------------------------------|
E|--7------0------4------4------7------0------4------4-----------------------|

           "dum dum"     "dum dum"     "dum dum"                                (0.09 - 0.17)
e|---------------------------------------------------------------------------|
B|---------------------------------------------------------------------------|
G|-----8-8----1-1----4-4----4-4----8-8----1-1----4-4----4-4------------------|
D|-----9-9----2-2----6-6----6-6----9-9----2-2----6-6----6-6------------------|
A|---------------------------------------------------------------------------|
E|--7------0------4------4------7------0------4------4-----------------------|


Verse 1: - same as intro synth                                                  (0.18 - 0.33)
-------------------------------
B          E           G#m
  This ordinary thing 
G#m          B                E         G#m   G#m
can be more colourful than you say it is
B          E     G#m  G#m      B              E            G#m G#m
The cardinal sin is to tell a lie but now you must give in


Pre-Chorus:                                                                     (0.34 - 0.51)
-----------
          C#m
The storm came down on you just like it was the end
             G#m                   F#
And then you hid and you covered your head
         C#m
But face the rage and feel how thrilling it can be
             G#m                   F#
'Cause in the bedlam there is always beauty


Chorus:                                                                         (0.52 - 1.09)
-------
     G#m7            G#m7       D#m7          D#m7
It's shaking, it's shaking the ground it's a-breaking
      E           E          C#m7       C#m7      
And you can't control it, so own it and feel good
     G#m7         G#m7       D#m7       D#m7
I'm searching for glory, now tell me a story
    E            E            C#m7       C#m7 
Добавлено: 12.07.2015
Вам также может быть интересно:
Другие материалы по этой песне:
  • Аккорды и текст

Страница создана 12.07.2015
http://primanota.ru/chela/romanticise-chords.htm
Привет, Гость.
Предлагаем пройти революционный курс по гитаре.
Подарок от PrimaNota.Ru, забирай!