PrimaNota.ru - самый крупный в мире бесплатный архив песенных текстов, аккордов, табулатур и нот


Chef Special - Free - аккорды и текст, видео

Регистрация Запомнить меня
Войти через:  Facebook Google Twitter Vk Yandex Mail.ru

Chef Special - Free - аккорды и текст, видео

Печатать
Просмотров: 94
Free
Chef Special
-------------------------------------------------------------------------------
                               Free - Chef'Special
-------------------------------------------------------------------------------

Tabbed by: Karel Turkstra
E-mail: Karel-turkstra@hotmail.com


Tuning: Standard


Gm :  X 10 12 12 11 10
Dm : 10 12 12 10(10)(10) 
D# :  X  6  8  8  8 (6)
A# :  6  8  8  7 (6)(6)
Cm :  X  3  5  5  4 (3)
F  :  1  3  3  2 (1)(1)


Intro

Bound to be free, it has been clear from the start, 
I have no fear up in this heart, no boundaries.
Bound to be free, can you watch me from a distance 
         Gm               Dm
before I lose the touch of listening 
       D#            Cm                  A#
I don't feel I wanna miss what's in your heart.
                   D#
tu tu duu du tu tu duu duu
               A#
What's in your heart.
                   D#
tu tu duu du tu tu duu duu



Verse 1

              A#        F                       D#              A#
What's in your dark past behind your pebbles, I feel yet can't see, can't unravel.
     Gm              Dm                           D#          A#    
You said: 'follow me', but you walk behind, I had no coat on and I walk no line.
     A#                 F                                  D#                  A#                                
You said: 'boy go there where there's no sunshine, for the darker your journey the brighter your mind.'
       Gm               Dm
And the bright what you might just gon' find.
      D#                  A#
Don't load what you can't carry, walk twice.


Chorus

A#                D#
Free, it has been clear from the start, 
          A#                             D#
I have no fear up in this heart, no boundaries.
            A#            D#
Bound to be free, can you watch me from a distance 
         Gm               Dm
before I lose the touch of listening 
       D#            Cm                  A#
I don't feel I wanna miss what's in your heart.
                   D#
tu tu duu du tu tu duu duu
               A#
What's in your heart.
                   D#
tu tu duu du tu tu duu duu



Verse 2

               A#            F                    D#                  A#
What's in your restless mind at the present time, try to hide the low and pretend the high,
    Gm                      Dm                          D#        A#    
but you don't have to shine every time I come by, I can take it I, I'm a big guy.
  A#                       F                            D#                       A#                      
I know I haven't turned my head much since I left, been working on succes try to learn from my regrets, now
 Gm           Dm                              D#               A#    
I hope I earn all the love I get, sometimes I give all I have and there's really nothing left.
A#               F                                    D#                  A#
It ain't a curse it's a blessing, I hear you thinking, between the turns and the guessing
              Gm          Dm                             D#                  A#    
all is freedom, all is welcome and none is needed, don't claim the unforseen boy, don't get greedy.



Chorus

A#                D#
Free, it has been clear from the start, 
          A#                             D#
I have no fear up in this heart, no boundaries.
            A#            D#
Bound to be free, can you watch me from a distance 
         Gm               Dm
before I lose the touch of listening 
       D#            Cm                  A#
I don't feel I wanna miss what's in your heart.
            


Guitar Solo 
(chords | A# - D#  x7 | Gm - Dm - D# - Cm - A# | A# - D# until fade out | )


e|--------------------------------------------------5h6-5--------5-----------|
B|---------------------------------------6h8p6h8p6---------8--8-----6--------|
G|---5-----7-----7br-p5-----------------7------------------------------------|
D|----------------------8------------8---------------------------------------|
A|-8-----8-----8-------------------------------------------------------------|
E|---------------------------------------------------------------------------|

e|-6----6--------------------------------------------------------------------|
B|-6h8--6------------------------------------6--8----------------------------|
G|---------7--8--7--5--------5-----7-----7b--------5br-----------------------|
D|--------------------8-------------------------------5h6p5------------------|
A|-----------------------8-----8-----8---------------------8p6p5---5h6-------|
E|---------------------------------------------------------------8-----------|

e|---------------------------------------------------------------------------|
B|-------------------------8b--8--6-----6------------------------------------|
G|-------------13p11b----------------8-----6---------------------------------|
D|-------8/10---------------------------------8--8---------------------------|
A|-8/10----------------------------------------------------------------------|
E|---------------------------------------------------------------------------|
          so I don't want to miss....
e|-------------------6------8-----10-----10brp8------------------------------|
B|----------------6------------------------------11--------------------------|
G|----7-----8------------7-----7------7--------------------------------------|
D|-8-----8-----8-------------------------------------------------------------|
A|---------------------------------------------------------------------------|
E|---------------------------------------------------------------------------|
                         I just want to hold.....     
e|-13----------------------------13------------------------------------------|
B|-----13brp11--13------11--13b------13b--13brp11------13------11------------|
G|------------------12-----------------------------12------12----------------|
D|---------------------------------------------------------------------------|
A|---------------------------------------------------------------------------|
E|---------------------------------------------------------------------------|
                                  'cause I've been there....
e|-----------------------------------13b-13b-13-13br-----11-13---------------|
B|13brp11-13brp11----13brp11-13brp11-----------------13b-------13brp11--11h13|
G|----------------12---------------------------------------------------------|
D|---------------------------------------------------------------------------|
A|---------------------------------------------------------------------------|
E|---------------------------------------------------------------------------|

e|-----15------17------17b--17-15-14--18br--14-17-15-------------------------|
B|-15------15------15--------------------------------15--16br---------18-----|
G|------------------------------------------------------------15--17b----17b-|
D|---------------------------------------------------------------------------|
A|---------------------------------------------------------------------------|
E|---------------------------------------------------------------------------|
 tu tu duu du tu tu duu duu
e|---------------------------------6-----6------------6/8\6/8\6/8\6----------|
B|-------15--------------------6h8---6h8--------------6/8\6/8\6/8\6----------|
G|-15h17----15h17-15-15---------------------7br------------------------------|
D|---------------------------------------------------------------------------|
A|---------------------------------------------------------------------------|
E|---------------------------------------------------------------------------|
                                                bound to be free...
e|---------------------------------------------------------------------------|
B|-6---6---6-----------------------------------------------------------------|
G|-6h7-6h7-6h7--5-------------6\5-6\5-6\5-----6\5-6\5-6\5--3--5/7------------|
D|-----------------8---------------------------------------------------------|
A|---------------------------------------------------------------------------|
E|---------------------------------------------------------------------------|


************************************

| /   slide up
| \   slide down
| h   hammer-on
| p   pull-off
| ~   vibrato
| +   harmonic
| x   Mute note
| b   Bend
| pb  Pre-bend
| br  Bend release
| pbr Pre-bend release
| brb Bend release bend

************************************
Добавлено: 29.10.2014
Другие материалы по этой песне:
  • Аккорды и текст

Страница создана 29.10.2014
http://primanota.ru/chef-special/free-chords.htm
Привет, Гость.
Предлагаем пройти революционный курс по гитаре.
Подарок от PrimaNota.Ru, забирай!