PrimaNota.ru - самый крупный в мире бесплатный архив песенных текстов, аккордов, табулатур и нот


Cheeseburger - Winner - таба, видео

Регистрация Запомнить меня
Войти через:  Facebook Google Twitter Vk Yandex Mail.ru

Cheeseburger - Winner - таба, видео

Печатать
Просмотров: 145
Winner
by Cheeseburger
from "Another Big Night Down the Drain"

Riff 1:
E|--------------------------|
B|--------------------------|
G|--7--7--7--7--7--7--7--7--|
D|--7--7--7--7--7--7--7--7--|
A|--5--5--4--5--5--5--4--5--|
E|--------------------------|

Riff 2:
E|-------------------------------------|
B|-------------------------------------|
G|--7--7--7--7--7--7--7--7-------------|
D|--7--7--7--7--7--7--7--7----7--5--5--|
A|--5--5--4--5--5--5--4--5----7--5--5--|
E|----------------------------5--3--3--|

Riff 3:
E|--------------------|
B|--------------------|
G|-----------------7--|
D|--5--5--5--7--7--7--|
A|--5--5--5--7--7--5--|
E|--3--3--3--5--5-----|

Riff 4:
E|-------------------------------------|
B|-------------------------------------|
G|--9--9--9--9--9--9--9--9-------------|
D|--9--9--9--9--9--9--9--9----9--7--7--|
A|--7--7--6--7--7--7--6--7----9--7--7--|
E|----------------------------7--5--5--|

Riff 5:
E|--------------------|
B|--------------------|
G|-----------------9--|
D|--7--7--7--9--9--9--|
A|--7--7--7--9--9--7--|
E|--5--5--5--7--7-----|

The song is pretty simple. Here's the order of the riffs, though it's fairly easy to 
figure out just by playing along.
Riff 1 x3
Riff 2 x9
Riff 1 x3
Riff 2 x5
Riff 3 x4 (Ring out on fourth.)
Riff 1 x3
Riff 2 x5
Riff 4 x4
Riff 5 x6 (Ring out on sixth to end.)

And that's it. Have fun winning.
Добавлено: 03.04.2012
Другие материалы по этой песне:
  • Аккорды и текст

Страница создана 03.04.2012
http://primanota.ru/cheeseburger/winner-chords.htm
Привет, Гость.
Предлагаем пройти революционный курс по гитаре.
Подарок от PrimaNota.Ru, забирай!