PrimaNota.ru - самый крупный в мире бесплатный архив песенных текстов, аккордов, табулатур и нот


Cheer Up Charlie - More - аккорды и текст, таба, видео

Регистрация Запомнить меня
Войти через:  Facebook Google Twitter Vk Yandex Mail.ru

Cheer Up Charlie - More - аккорды и текст, таба, видео

Печатать
Просмотров: 131
Уроки эстрадного вокала в Санкт-Петербурге
More
Cheer Up Charlie
Cheer Up Charlie - More
http://cheerupcharlie.com
by: Bradley DeRosia & Hugh Butler 

Chord Formations:

Am  x02210 OR 577555
Am7 x02010 OR 575555
Bb  x1333x OR 688766
C   x3555x OR 81010988
F   112331 OR x8101010x


intro:
e-|-1----------------------------|-6-------------------------------|
B-|--1---------------------------|--6------------------------------|
G-|---2----------2--------2------|---7----------7-----------7------|
D-|----3---------3--------3------|----8---------8-----------8------|
A-|------------3-------3---------|------------8-----------8--------|
E-|----------1--------1----------|----------6-----------6----------|


Bb           Am               Bb                      Am
Just hold my hand a while and walk with me my dearest child
Bb             Am                       Bb
I know all the things that your feeling cause I have been there too, 
Am                 Am7
And I am here with you


F /
   And I want you
F /
   And I need you
F /
   So desperately
F // //
         You are mine and, 
C /
    yes, I made you
Bb /
    Please come to me


Bb             F                 C                  Bb
and I love you more than life or death or earth and sea
Bb         F                             C
I love you more than the things that you think you've done
           Bb
That would keep you from me
Bb           F
  I love you more 
F            C
  I love you more
Bb
so very much more









Bb              Am                Bb
Your tears and fears are mine and I have cast them out
Am
They are shattered on the ground
Bb             Am                Bb
For you I have chosen to suffer, but I'd do it all again, 
Am                 Am7
Yes I'd do it all again


F /
   And I want you
F /
   And I need you
F /
   So desperately
F // //
         You are mine and, 
C /
    yes, I made you
Bb /
    Please come to me



Bb             F                 C                  Bb
and I love you more than life or death or earth and sea
Bb         F                             C
I love you more than the things that you think you've done
           Bb
That would keep you from me






F /
   And I want you
F /
   And I need you
F /
   So desperately


Bb             F                 C                  Bb
and I love you more than life or death or earth and sea
Bb         F                             C
I love you more than the things that you think you've done
           Bb
That would keep you from me

Bb         F                 C                  Bb
I love you more than life or death or earth and sea
Bb         F                             C
I love you more than tears or guilt or lies or money,
           Bb
More than fears or greed or feeling empty more…

More than even me.









Here is the SOLO:

---------------------------------------------------------------
---------------------------------------------------------------
-9h10p9-12-10-9-10p9------------9h10p9-12-10-9-10p9------------
----------------------10-----------------------------10--------
---------------------------------------------------------------
---------------------------------------------------------------

-----------------------------------------------------------------------
----------------10--------------------------------10----------------13-
-9h10p9-9/10h12----12-10-10h12p10-----------10h12----12-10-10h12p10----
----------------------------------12--10-------------------------------
------------------------------------------13---------------------------
-----------------------------------------------------------------------

|-------------------------------------|-------------------------------------|
|-------------------------------------|---------------------------------10--|
|-9-9-10-9-9-12-9-9-10-9-9-10-9-9-----|-9-9-10-9-9-12-9-9-10-9-9-10-9-9-----|
|---------------------------------10--|-------------------------------------|
|-------------------------------------|-------------------------------------|
|-------------------------------------|-------------------------------------|


|-------------------------------------|-------------------------------------|
|-------------------------------------|-------------------------------------|
|-9-9-10-9-9-12-9-9-10-9-9-10-9-9-----|----9--10--9-------------------------|
|---------------------------------10--|--------------10---8---7-------------|
|-------------------------------------|--------------------------8----------|
|-------------------------------------|-------------------------------------|


Добавлено: 18.05.2012
Вам также может быть интересно:
Другие материалы по этой песне:
  • Аккорды и текст

Страница создана 18.05.2012
http://primanota.ru/cheer-up-charlie/more-chords.htm
Привет, Гость.
Предлагаем пройти революционный курс по гитаре.
Подарок от PrimaNota.Ru, забирай!