PrimaNota.ru - самый крупный в мире бесплатный архив песенных текстов, аккордов, табулатур и нот


Cheatahs - The Swan - таба, видео

Регистрация Запомнить меня
Войти через:  Facebook Google Twitter Vk Yandex Mail.ru

Cheatahs - The Swan - таба, видео

Печатать
Просмотров: 91
Уроки эстрадного вокала в Санкт-Петербурге
-------------------------------------------------------------------------------
                             The Swan - Cheatahs
-------------------------------------------------------------------------------
Tabbed by: Lucke


Tuning: Standard

Listen to song and play along to get a feel for exactly how many times you hit notes and the strumming etc.

G1

e|-------------6-----------------------------------------------------------------|
B|------7--x8---7----------------------------------------------------------------|
G|---6h8-------------------------------------------------------------------------| Repeat over as necessary
D|-------------------------------------------------------------------------------|
A|-------------------------------------------------------------------------------|
E|-------------------------------------------------------------------------------|

G2 

e|-------------------------------------------------------------------------------|
B|-------------------------------------------------------------------------------|
G|--4-----6----------------------------------------------------------------------|
D|--4--6--6--6-6-6-6-6-6-6-6-----------------------------------------------------|
A|--2--6--4--6-6-6-6-6-6-6-6-----------------------------------------------------|
E|-----4-----4-4-4-4-4-4-4-4-----------------------------------------------------|

G1 

e|-------------------------------------------------------------------------------|
B|-------7---------------------------------7------------------------7-9-7--------|
G|-8-8-8-------------------------------------8-----------------------------------|
D|---------9-------------------------9--9------9--9/11\9------9--9--------9------|
A|-------------------------------------------------------------------------------|
E|-------------------------------------------------------------------------------|

G2

e|-------------------------------------------------------------------------------|
B|-------------------------------------------------------------------------------|
G|--4---4-4-4--/--6------------------4--4----------------------------------------|
D|--4---4-4-4--/--6---6--------------4--4---6------------------------------------|
A|--2---2-2-2--/--4---6--------------2--2---6------------------------------------|
E|--------------------4---------------------4------------------------------------|

Go back to the beginning and then play this all over again pretty much.

The ending is like this

G1

Tremelo open B for a while and then come in like this.

I am not entirely sure which way I like best when playing this so here is my first version:

e|------------------------------------------------------------------------------------------------|
B|-0-0-0-0-0-0-0-0-2-2-2-2-0-0-0-0-0-0-0-0-0-0-0-0-4-4-4-4-h5-5-5-5-0-0-0-0-0-0-0-----------------|
G|---------------------------------------------------------------------------------2-2-2-2-1-1-1-1| Repeat as
D|------------------------------------------------------------------------------------------------| necessary
A|------------------------------------------------------------------------------------------------|
E|------------------------------------------------------------------------------------------------|

OK now here is the second version:
                                                                       
e|------------------------------------------------------------------------------------------------|
B|--0-0-0-0-0-0-0-0-0-0-0-0-0-0-0-0-0-0-0-0-0-0-0-0--0-0-0-0-----------0-0-0-0-0-0-0-0------------|
G|-4-4-4-4-4-4-4-4-6-6-6-6-4-4-4-4-4-4-4-4-8-8-8-8-/9-9-9-9---Repeat--2-2-2-2-1-1-1-1-------------| Repeat as
D|------------------------------------------------------------a few-------------------------------| necessary
A|------------------------------------------------------------times-------------------------------|
E|------------------------------------------------------------------------------------------------|

Yeah I kinda prefer the second version. See what you like though.

G2

e|-------------------------------------------------------------------------------|
B|--------------10-10-10-10-9-9-9-9-7-7-7-7---9-7-9-7----------------------------|
G|-------------------------------------------------------------------------------|
D|-------------------------------------------------------------------------------|
A|-------------------------------------------------------------------------------|
E|-------------------------------------------------------------------------------|

And that should be about it I think.
I think I am missing some chords for around the chorus so if anyone can help out then leave a comment please.
Thanks.

************************************

| /   slide up
| \   slide down
| h   hammer-on
| p   pull-off
| ~   vibrato
| +   harmonic
| x   Mute note
| b   Bend
| pb  Pre-bend
| br  Bend release
| pbr Pre-bend release
| brb Bend release bend

************************************
Добавлено: 23.06.2016
Другие материалы по этой песне:
  • Аккорды и текст

Страница создана 23.06.2016
http://primanota.ru/cheatahs/swan-chords.htm
Привет, Гость.
Предлагаем пройти революционный курс по гитаре.
Подарок от PrimaNota.Ru, забирай!