PrimaNota.ru - самый крупный в мире бесплатный архив песенных текстов, аккордов, табулатур и нот


Cheatahs - Geographic - аккорды и текст, видео

Регистрация Запомнить меня
Войти через:  Facebook Google Twitter Vk Yandex Mail.ru

Cheatahs - Geographic - аккорды и текст, видео

Печатать
Просмотров: 55
Уроки эстрадного вокала в Санкт-Петербурге
Авторы: Marc Raue, James Wignall, Nathan Hewitt, Dean Reid

Geographic
Cheatahs
-------------------------------------------------------------------------------
                             SONG NAME - Band Name
-------------------------------------------------------------------------------
Tabbed by: Tim Emmott
E-mail: t.j.emmott@hotmail.co.uk


Such a strong song from an incredible debut album from one of my favourite newer bands.
Check out more Cheatahs on their soundcloud: https://soundcloud.com/cheatahs



Tuning: Standard

Throughout the tab I've tried to make the chords match up to the lead parts,
let me know if it's any good.

Intro Chords (rhythm is straightforward)
(FUZZ DISTORTION):


      C/G   C#/G#  D#/A   E#/B# 
e|---------------------------------------------------------------------------|
B|---------------------------------------------------------------------------|
G|-----5------6-----8----------------------10-------10-----------------------|
D|-----5------6-----8----------------------10(p8h10)10-----------------------|
A|-----3------4-----6----------------------8---------8-----------------------|
E|-----3------4-----6----------------------8---------8-----------------------|x2

Intro lead:                              1.              2.
(Chorus/distortion effect)
e|---------------------------------------------------------------------------|
B|-----8----8-6-11-8-13-11-16--13-18-18----15 13-----------8-6-8-------------|
G|-----------------------------------------------12--------------------------|
D|---------------------------------------------------------------------------|
A|---------------------------------------------------------------------------|
E|-------------------------------------x2------------------------------------|

Verse chords are the same as the intro ones

      C/G   C#/G#  D#/A   E#/B# 
e|---------------------------------------------------------------------------|
B|---------------------------------------------------------------------------|
G|-----5------6-----8----------------------10-------10-----------------------|
D|-----5------6-----8----------------------10(p8h10)10-----------------------|
A|-----3------4-----6----------------------8---------8-----------------------|
E|-----3------4-----6----------------------8---------8-----------------------|x2


Chorus (well not really coz there's no words but lets call it a chorus) chords:

e|---------------------------------------------------------------------------|
B|---------------------------------------------------------------------------|
G|-----5-----------------10--------------------------------------------------|
D|-----5-----------------10--------------------------------------------------|
A|-----3-----------------8---------------------------------------------------|
E|-----3-----------------8---------------------------------------------------|x2

Chorus lead:
e|---------------------------------------------------------------------------|
B|-----88-8888-88-5566---88-8888-88-s101066----------------------------------|
G|-----55-5555-55-5555---55-5555-55-s101055----------------------------------|
D|---------------------------------------------------------------------------|
A|---------------------------------------------------------------------------|
E|---------------------------------------------------------------------------|x2


Second verse is the same as the first:

Then the 'chorus' is the same.

Then there's a bridge bit at 1:29 which is kinda cool (chords):
e|---------------------------------------------------------------------------|
B|---------------------------------------------------------------------------|
G|---------------------------------------------------------------------------|
D|----6-------12-----8-------------------------------------------------------|
A|----6-------10-----8-------------------------------------------------------|
E|----4-------8------6-------------------------------------------------------|x4


that's it pretty much, no other parts. Enjoy
also check out my soundcloud, gonna be uploading more stuff to it v soon:

https://soundcloud.com/tim-emmott

************************************

| /   slide up
| \   slide down
| h   hammer-on
| p   pull-off
| ~   vibrato
| +   harmonic
| x   Mute note
| b   Bend
| pb  Pre-bend
| br  Bend release
| pbr Pre-bend release
| brb Bend release bend

************************************
Добавлено: 14.07.2015
Вам также может быть интересно:
Другие материалы по этой песне:
  • Аккорды и текст

Страница создана 14.07.2015
http://primanota.ru/cheatahs/geographic-chords.htm
Привет, Гость.
Предлагаем пройти революционный курс по гитаре.
Подарок от PrimaNota.Ru, забирай!