PrimaNota.ru - самый крупный в мире бесплатный архив песенных текстов, аккордов, табулатур и нот


Cheap Tune - I Sing From Hell - таба, видео

Регистрация Запомнить меня
Войти через:  Facebook Google Twitter Vk Yandex Mail.ru

Cheap Tune - I Sing From Hell - таба, видео

Печатать
Просмотров: 68
Cheap Tune - I Sing From Hell
http://www.youtube.com/watch?v=a3VgcXAd8RQ


Intro
2 times
E||--------------------------------------------------------------------------|
B||--------------------------------------------------------------------------|
G||--------------------------------------------------------------------------|
D||--2----2----2-0---------5-----4----4--4----4--4--4--4----4--4----4--4--0--|
A||--0----0----0-0--x-x-5--5-----2----2--2----2--2--2--2----2--2----2--2--0--|
E||--------------x--x-x-3--3--0----------------------------------------------|


Verse : 
2 times
------------------------------------------------------------------------------------------|
------------------------------------------------------------------------------------------|
----------2---------------------0---------------------4---------------------4-------------|
-------2-------2-------------0-------0-------------4-------4-------------4-------4--------|
--0---------------0---------------------------2---------------2--2--2---------------2--0--|
---------------------0--3---------------3--0----------------------------------------------|

2 times
------------------------------------------------------------------------------------------|
------------------------------------------------------------------------------------------|
----------2---------------------0---------------------4---------------------4-------------|
--2----2--2----2--2----------0--0----0-------------4--4----4-------------4--4----4--------|
--0---------------0---------------------------2------------2--2--2--2---------------2--0--|
---------------------0--3---------------3--0----------------------------------------------|


Chorus :
-----------------------------------------------------------------------|
-----------------------------------------------------------------------|
--2----2----2-----------------x----x--x----x--x--x--x----x--x----x--x--|
--2----2----2-x---------5-----4----4--4----4--4--4--4----4--4----4--4--|
--0----0----0-x--x-x-5--5-----2----2--2----2--2--2--2----2--2----2--2--|
--------------x--x-x-3--3--0-------------------------------------------|



--------------------------------------------------------------------------|
--------------------------------------------------------------------------|
--2----2----2----------------------------------------------------------0--|
--2----2----2-0---------5-----4----4--4----4--4--4--4----4--4----4--4--0--|
--0----0----0-0--x-x-5--5-----4----4--4----4--4--4--4----4--4----4--4--0--|
--------------x--x-x-3--3--0--2----2--2----2--2--2--2----2--2----2--2-----|



-----------------------------------------------------------------------|
-----------------------------------------------------------------------|
--2----2----2-----------------x----x--x----x--x--x--x----x--x----x--x--|
--2----2----2-x---------5-----4----4--4----4--4--4--4----4--4----4--4--|
--0----0----0-x--x-x-5--5-----2----2--2----2--2--2--2----2--2----2--2--|
--------------x--x-x-3--3--0-------------------------------------------|



-------------------------------------------------------------------------|
-------------------------------------------------------------------------|
--0--2----2----2------------------------------------------------------0--|
--0--2----2----2-0---------5-----4----------------L----4--4--4--4--4--0--|
-----0----0----0-0--x-x-5--5-----4----------------L----4--4--4--4--4--0--|
-----------------x--x-x-3--3--0--2----------------L----2--2--2--2--2-----|


Verse
2 times
------------------------------------------------------------------------------------------|
------------------------------------------------------------------------------------------|
----------2---------------------0---------------------4---------------------4-------------|
-------2-------2-------------0-------0-------------4-------4-------------4-------4--------|
--0---------------0---------------------------2---------------2--2--2---------------2--0--|
---------------------0--3---------------3--0----------------------------------------------|

2 times
------------------------------------------------------------------------------------------|
------------------------------------------------------------------------------------------|
----------2---------------------0---------------------4---------------------4-------------|
--2----2--2----2--2----------0--0----0-------------4--4----4-------------4--4----4--------|
--0---------------0---------------------------2------------2--2--2--2---------------2--0--|
---------------------0--3---------------3--0----------------------------------------------|


Chorus
-----------------------------------------------------------------------|
-----------------------------------------------------------------------|
--2----2----2-----------------x----x--x----x--x--x--x----x--x----x--x--|
--2----2----2-x---------5-----4----4--4----4--4--4--4----4--4----4--4--|
--0----0----0-x--x-x-5--5-----2----2--2----2--2--2--2----2--2----2--2--|
--------------x--x-x-3--3--0-------------------------------------------|



--------------------------------------------------------------------------|
--------------------------------------------------------------------------|
--2----2----2----------------------------------------------------------0--|
--2----2----2-0---------5-----4----4--4----4--4--4--4----4--4----4--4--0--|
--0----0----0-0--x-x-5--5-----4----4--4----4--4--4--4----4--4----4--4--0--|
--------------x--x-x-3--3--0--2----2--2----2--2--2--2----2--2----2--2-----|



-----------------------------------------------------------------------|
-----------------------------------------------------------------------|
--2----2----2-----------------x----x--x----x--x--x--x----x--x----x--x--|
--2----2----2-x---------5-----4----4--4----4--4--4--4----4--4----4--4--|
--0----0----0-x--x-x-5--5-----2----2--2----2--2--2--2----2--2----2--2--|
--------------x--x-x-3--3--0-------------------------------------------|



-------------------------------------------------------------------------|
-------------------------------------------------------------------------|
--0--2----2----2------------------------------------------------------0--|
--0--2----2----2-0---------5-----4----------------L----4--4--4--4--4--0--|
-----0----0----0-0--x-x-5--5-----4----------------L----4--4--4--4--4--0--|
-----------------x--x-x-3--3--0--2----------------L----2--2--2--2--2-----|



Bridge
---------------------------------------------------------------------------------|
--------------------------------------------------------------------------0~-----|
--2~-----------------------2~-----------2~-----------2~-----2~-----2~-----2S~----|
--2~--x--x--x--x--x--x--x--2~--x--x--x--2~--x--x--x--2~--x--2~--x--2~--x--2S~----|
--0~--x--x--x--x--x--x--x--0~--x--x--x--0~--x--x--x--0~--x--0~--x--0~--x--0~-----|
---------------------------------------------------------------------------------|


Solo
2 times
-----------------------------------------------------------------------------------------|
-----------------------------------------------------------------------------------------|
--7----7--7--7--7--7--5----5--5--5--5--5--0--3----3--3----3--3--0--2----2--2----2--2--0--|
--7----7--7--7--7--7--5----5--5--5--5--5--0--3----3--3----3--3--0--2----2--2----2--2--0--|
-----------------------------------------------------------------------------------------|
-----------------------------------------------------------------------------------------|


                                                                   ^                    
---------------------------------------------------------------------------------------|
---------------------------------------------------------------------------------------|
--7----7--7--7--7--7--5----5--5--5--5--5--0--3----3--3----3--3--0--2----------------L--|
--7----7--7--7--7--7--5----5--5--5--5--5--0--3----3--3----3--3--0--2----------------L--|
-------------------------------------------------------------------0----------------L--|
---------------------------------------------------------------------------------------|



Verse : 
2 times
------------------------------------------------------------------------------------------|
------------------------------------------------------------------------------------------|
----------2---------------------0---------------------4---------------------4-------------|
-------2-------2-------------0-------0-------------4-------4-------------4-------4--------|
--0---------------0---------------------------2---------------2--2--2---------------2--0--|
---------------------0--3---------------3--0----------------------------------------------|

2 times
------------------------------------------------------------------------------------------|
------------------------------------------------------------------------------------------|
----------2---------------------0---------------------4---------------------4-------------|
--2----2--2----2--2----------0--0----0-------------4--4----4-------------4--4----4--------|
--0---------------0---------------------------2------------2--2--2--2---------------2--0--|
---------------------0--3---------------3--0----------------------------------------------|


Chorus :
-----------------------------------------------------------------------|
-----------------------------------------------------------------------|
--2----2----2-----------------x----x--x----x--x--x--x----x--x----x--x--|
--2----2----2-x---------5-----4----4--4----4--4--4--4----4--4----4--4--|
--0----0----0-x--x-x-5--5-----2----2--2----2--2--2--2----2--2----2--2--|
--------------x--x-x-3--3--0-------------------------------------------|



--------------------------------------------------------------------------|
--------------------------------------------------------------------------|
--2----2----2----------------------------------------------------------0--|
--2----2----2-0---------5-----4----4--4----4--4--4--4----4--4----4--4--0--|
--0----0----0-0--x-x-5--5-----4----4--4----4--4--4--4----4--4----4--4--0--|
--------------x--x-x-3--3--0--2----2--2----2--2--2--2----2--2----2--2-----|



-----------------------------------------------------------------------|
-----------------------------------------------------------------------|
--2----2----2-----------------x----x--x----x--x--x--x----x--x----x--x--|
--2----2----2-x---------5-----4----4--4----4--4--4--4----4--4----4--4--|
--0----0----0-x--x-x-5--5-----2----2--2----2--2--2--2----2--2----2--2--|
--------------x--x-x-3--3--0-------------------------------------------|



-------------------------------------------------------------------------|
-------------------------------------------------------------------------|
--0--2----2----2------------------------------------------------------0--|
--0--2----2----2-0---------5-----4----------------L----4--4--4--4--4--0--|
-----0----0----0-0--x-x-5--5-----4----------------L----4--4--4--4--4--0--|
-----------------x--x-x-3--3--0--2----------------L----2--2--2--2--2-----|
Добавлено: 17.09.2013
Другие материалы по этой песне:
  • Аккорды и текст

Страница создана 05.07.2013
http://primanota.ru/cheap-tune/i-sing-from-hell-chords.htm
Привет, Гость.
Предлагаем пройти революционный курс по гитаре.
Подарок от PrimaNota.Ru, забирай!