PrimaNota.ru - самый крупный в мире бесплатный архив песенных текстов, аккордов, табулатур и нот


Cheap Trick - Wrong Side of Love - аккорды и текст, видео

Регистрация Запомнить меня
Войти через:  Facebook Google Twitter Vk Yandex Mail.ru

Cheap Trick - Wrong Side of Love - аккорды и текст, видео

Печатать
Просмотров: 101
Wrong Side of Love
Cheap Trick
-------------------------------------------------------------------------------
                         Wrong Side of Love-Cheap Trick
-------------------------------------------------------------------------------
Tabbed by:Nick V.
E-mail:BlindTerry333@gmail.com

From 1988's Lap of Luxury.

Tuning:EADGBE

Intro:

   Gadd2(no3rd)   C   Gadd2(no3rd)    C   Gadd2(no3rd)    C    G5   C
e|-3---0-0---3---0-0---3---0-0---3---0-0-----------------------------------------|
B|-3---1-1---3---1-1---3---1-1---3---1-1-----------------------------------------|
G|-0---0-0---0---0-0---0---0-0---0---0-0-----------------------------------------|
D|-0---2-2---0---2-2---0---2-2---0---2-2-----------------------------------------|
A|-0---3-3---0---3-3---0---3-3---0---3-3-----------------------------------------|
E|-3---------3---------3---------3-----------------------------------------------|

Verse:

   
  Gadd2(no3rd)    C   [x3]   F   Gadd2(no3rd)
e|-3---0-0-------------3-3-------------------------------------------------------|
B|-3---1-1---------1---3-3-------------------------------------------------------|
G|-0---0-0---------2---0-0-------------------------------------------------------|
D|-0---2-2---------3---0-0-------------------------------------------------------|
A|-0---3-3---------3---0-0-------------------------------------------------------|
E|-3---------------1---3-3-------------------------------------------------------|

                            Gadd2(no3rd)      C
She said that she's got something else on her mind
                    Gadd2(no3rd)           C
I'm spending my money, but I'm wasting time
                     Gadd2(no3rd)          C    F  Gadd2(no3rd)
It looks to me like the end of the line
                        Gadd2(no3rd)            C
Well, she plays both sides and she's making me choose
                  Gadd2(no3rd)          C
It's heads, she wins, and tails I lose
                 Gadd2(no3rd)            C     F  Gadd2(no3rd)
Each time I call, it's another excuse

C                              A
I thought I was finally doin' everything right
C                                  A
Now it looks like I'm the one left lonely tonight
                              Gadd2(no3rd)   C
I picked the wrong side of love
                             C  Gadd2(no3rd)
And I wound up on the losin' end
      A                  D   C
The wrong side of love
                             C  Gadd2(no3rd)
Now I'm starting all over again

              Gadd2(no3rd)              C
She makes me feel like I'm out of control
              Gadd2(no3rd)                 C
She comes on hot but she turns ice cold
                Gadd2(no3rd)              C        F   Gadd2(no3rd)
Her light says stop when I'm ready to go...go

              Gadd2(no3rd)               C
She set me up, now she's puttin' me down
              Gadd2(no3rd)               C
Sometimes I feel like a face in the crowd
              Gadd2(no3rd)               C   F  Gadd2(no3rd)
One day I'm in, the next day I'm out


C                              A
I thought I was finally doin' everything right
C                                  A
Now it looks like I'm the one left lonely tonight
                              Gadd2(no3rd)   C
I picked the wrong side of love
                             C  Gadd2(no3rd)
And I wound up on the losin' end
      A                  D   C
The wrong side of love
                             C  Gadd2(no3rd)
Now I'm starting all over again


Gadd2(no3rd)
I picked the wrong side of love
Right place, wrong time
The wrong side of love
Well honey, point me in the right direction


C                              A
I thought I was finally doin' everything right
D                                   A
Now it looks like I'm the one left lonely tonight


                              Gadd2(no3rd)   C
I picked the wrong side of love
                             C  Gadd2(no3rd)
And I wound up on the losin' end
      A                  D   C
The wrong side of love
                             C  Gadd2(no3rd)
Now I'm starting all over again


                              Gadd2(no3rd)   C
I picked the wrong side of love
                             C  Gadd2(no3rd)
And I wound up on the losin' end
      A                  D   C
The wrong side of love
                             C  Gadd2(no3rd)
Now I'm starting all over again


Questions, comments, insults...BlindTerry333
Добавлено: 10.10.2015
Другие материалы по этой песне:
  • Аккорды и текст

Страница создана 28.10.2013
http://primanota.ru/cheap-trick/wrong-side-of-love-chords.htm
Привет, Гость.
Предлагаем пройти революционный курс по гитаре.
Подарок от PrimaNota.Ru, забирай!