PrimaNota.ru - самый крупный в мире бесплатный архив песенных текстов, аккордов, табулатур и нот


Cheap Trick - Wherever Would I Be - аккорды и текст, видео

Регистрация Запомнить меня
Войти через:  Facebook Google Twitter Vk Yandex Mail.ru

Cheap Trick - Wherever Would I Be - аккорды и текст, видео

Печатать
Просмотров: 68
Wherever Would I Be
Cheap Trick
-------------------------------------------------------------------------------
                 Wherever Would I Be-Cheap Trick
-------------------------------------------------------------------------------
Tabbed by:Nick V.
E-mail:BlindTerry333@gmail.com

Tuning:EADGBE


Intro:
   D  Dsus2            Em                             G
e|-2---0h2---2---0h2---------------------------------------------------------|
B|-3---3-----3---3-----------------------------------------------------------|
G|-2---2-----2---2----------------------0------0-----------------------------|
D|-0---0-----0---0-----------------0h2-----0h2-------------------------------|
A|-0---0-----0---0----------0-2-3--------------------------------------------|
E|---------------------------------------------------------------------------|


D                                      Em
When my world is turning, when it's turning upside down
C                  G     D
When all I see is rain, when I think the night won't end
Em                   C                      D
I just think of you and I can see the sun again

G               Am
Wherever would I be without you, tell me
D                Em  D  C
If I didn't have you, whatever would I do now, baby
G               Am                       C   Em     F     C
Whatever would I be without you, I'd be nowhere, I'd be nowhere


D                                    Em
When the dreams I dream all seem a million miles away
C                 G
When I'm sure, I'll never win
D                       
When it's looking like I've lost my faith
Em                     C                            D
I just look at you baby and I got reason to believe again


G               Am
Wherever would I be without you, tell me
D                Em  D  C
If I didn't have you, whatever would I do now, baby
G               Am                       C   Em     F     C
Whatever would I be without you, I'd be nowhere, I'd be nowhere

        Bb         F
Without you to love me
               C 
I'd just be wasting time
            E7
And goin' out of my mind


Solo

A  Bm  E  F#m  E  

D
Whatever would I do now, baby


A                Bm
Wherever would I be without you, tell me
E               F#m  E
If I didn't have you
D                         
Whatever would I do now, baby
A                Bm
Whatever would I be without you
        D       F#m
I'd be nowhere, I'd be nowhere
G           D   
I'd be nowhere


A                Bm
Wherever would I be without you, tell me
E               F#m  E
If I didn't have you
D                         
Whatever would I do now, baby
A                Bm
Whatever would I be without you
        D       F#m
I'd be nowhere, I'd be nowhere
G           D
I'd be nowhere


A                Bm
Wherever would I be without you, tell me
E               F#m  E
If I didn't have you
A                Bm
Wherever would I be without you, tell me

[fade]

  Keyboard 
e|---------------------------------------------------------------------------|
B|--------------------------------------------------------------------|
G|-----------------------------------------------------------------------|
D|-----------------------------------------------------------------------|
A|---------------------------------------------------------------------------|
E|---------------------------------------------------------------------------|


Questions, comments, insults...BlindTerry333
Добавлено: 10.10.2015
Другие материалы по этой песне:
  • Аккорды и текст

Страница создана 22.11.2013
http://primanota.ru/cheap-trick/wherever-would-i-be-chords.htm
Привет, Гость.
Предлагаем пройти революционный курс по гитаре.
Подарок от PrimaNota.Ru, забирай!