PrimaNota.ru - самый крупный в мире бесплатный архив песенных текстов, аккордов, табулатур и нот


Cheap Trick - Way of The World - аккорды и текст, видео

Регистрация Запомнить меня
Войти через:  Facebook Google Twitter Vk Yandex Mail.ru

Cheap Trick - Way of The World - аккорды и текст, видео

Печатать
Просмотров: 53
Way of The World
Cheap Trick
-------------------------------------------------------------------------------
                           Way of the World-Cheap Trick
-------------------------------------------------------------------------------
Tabbed by:Nick V.
E-mail:BlindTerry333@gmail.com

Tuning:EADGBE


Intro:

  D Dsus2 Dsus4 [x2] 

e|-2---0---3---2p0--------------------------------------------------|
B|-3---3---3---3----------------------------------------------------|
G|-2---2---2---2----------------------------------------------------|
D|-0---0---0---0----------------------------------------------------|
A|-0---0---0---0----------------------------------------------------|
E|------------------------------------------------------------------|

CsusaddF# Cadd2 Csus2      [x2]
e|-2-------0-----3-----2p0------------------------------------------|
B|-3-------3-----3-----3--------------------------------------------|
G|-0-------0-----0-----0--------------------------------------------|
D|-0-------0-----0-----0--------------------------------------------|
A|-3-------3-----3-----3--------------------------------------------|
E|------------------------------------------------------------------|


           A                 D Dsus2 Dsus4 D [x2]
It's the way of the world...


Verse:[Riff #1] "Remember..."
e|---------------------------------------------------------------------------|
B|---------5----------5-5-5--------------------------------------------------|
G|---------5----------5-5-5--------------------------------------------------|
D|-7-7--6--5---7-7-6--5-5-5--------------------------------------------------|
A|---------------------------------------------------------------------------|
E|---------------------------------------------------------------------------|

Verse:

A 
Remember you were in school and I followed you home.
                                                                    D
I remember, didn't think I existed but we're comin' together right now.


Verse:[Riff #2] "I've been runnin'..."
e|-------2--0--3---------2--0--3----2--0--3--2-------------------------------|
B|-------3--3--3---------3--3--3----3--3--3--3----2--------------------------|
G|-------2--2--2---------2--2--2----2--2--2--2----2--------------------------|
D|-------0--0--0---------0--0--0----0--0--0--0----2--------------------------|
A|-3p0---0--0--0---3p0---0--0--0----0--0--0--0----0--------------------------|
E|---------------------------------------------------------------------------|


                                                       A
I've been runnin', I've been hidin', it's the way of the world.
              G              Csus        Am7          D 
You say it's over, but the world keeps turnin' 'round.


D Dsus2 Dsus4 D [x2]


Verse:

A
Remember you were in school and I followed you home.
                                                                    D
I remember, didn't think I existed but we're comin' together right now.

[Riff #2]                                                    A
I've been runnin', I've been hidin', it's the way of the world.
              G              Csus        Am7          D
You say it's over, but the world keeps turnin' 'round


D Dsus2 Dsus4 D [x2]


Verse:

A 
Remember, I knew I'd be good for you.
                                                                            D
No one better remember, really meant what I said, want to be your lover right now.


                                                  A
I've been runnin', I've been hidin', it's the way of the world.


            G              Csus        Am7          D
You say it's over, but the world keeps turnin' 'round.
            D/C#            D/B             A
World goes round, life goes on, and on, and on.
              G            Csus          Am7      D
You say it's over, but the world keeps turnin' round.


D Dsus2 Dsus4 D

CsusaddF# Cadd2 Csus2

                     A
It's the way of the world.


Verse:

A 
Remember, you were at work and then Friday at five,
I remember, felt like a pawn, was I dead or alive?
I remember, thought no one could hear me, I was goin' insane.
                                                                  D
I remember, it was a real fine line, now you've changed my life around.


[Riff #2]                                                   A
I've been runnin', I've been hidin', it's the way of the world.
            G              Csus        Am7          D
You say it's over, but the world keeps turnin' 'round.
            D/C#            D/B             A
World goes round, life goes on, and on, and on.
              G            Csus          Am7      D
You say it's over, but the world keeps turnin' round.


[Riff #2]                                                   A
I've been runnin', I've been hidin', it's the way of the world.
            G              Csus        Am7          D
You say it's over, but the world keeps turnin' 'round.
            D/C#            D/B             A
World goes round, life goes on, and on, and on.
              G            Csus          Am7      D
You say it's over, but the world keeps turnin' round.


Questions, comments, insults...BlindTerry333
Добавлено: 10.10.2015
Другие материалы по этой песне:
  • Аккорды и текст

Страница создана 03.10.2013
http://primanota.ru/cheap-trick/way-of-the-world-chords.htm
Привет, Гость.
Предлагаем пройти революционный курс по гитаре.
Подарок от PrimaNota.Ru, забирай!