PrimaNota.ru - самый крупный в мире бесплатный архив песенных текстов, аккордов, табулатур и нот


Cheap Trick - Time Is Runnin' - аккорды и текст, видео

Регистрация Запомнить меня
Войти через:  Facebook Google Twitter Vk Yandex Mail.ru

Cheap Trick - Time Is Runnin' - аккорды и текст, видео

Печатать
Просмотров: 55
Time Is Runnin'
Cheap Trick
-------------------------------------------------------------------------------
                    Time Is Runnin'-Cheap Trick
-------------------------------------------------------------------------------
Tabbed by:Nick V.
E-mail:BlindTerry333@gm

Tuning:EADGBE

Intro:

e|------0--------0--------0--------------------------------------------------|
B|------0--------0--------0--------------------------------------------------|
G|-2-2--1---2-2--1---2-2--1--------------------------------------------------|
D|-2-2--2---2-2--2---2-2--2--------------------------------------------------|
A|-0-0--2---0-0--2---0-0--2--------------------------------------------------|
E|------0--------0--------0--------------------------------------------------|


Chorus:

e|--------------------------------------------------------0------------------|
B|-10-10-10--9---9-9-9--10---9-9--7--7-7--10-10--9--------0------------------|
G|--9--9--9--9---9-9-9---9---9-9--7--7-7---9--9--9---2-2--1------------------|
D|-11-11-11--9---9-9-9--11---9-9--7--7-7--11-11--9---2-2--2------------------|
A|---------------------------------------------------0-0--2------------------|
E|--------------------------------------------------------0------------------|

e|--------------------------------------------------------0------------------|
B|-10-10-10--9---9-9-9--10---9-9--7--7-7--10-10--9--------0------------------|
G|--9--9--9--9---9-9-9---9---9-9--7--7-7---9--9--9---2-2--1------------------|
D|-11-11-11--9---9-9-9--11---9-9--7--7-7--11-11--9---2-2--2------------------|
A|---------------------------------------------------0-0--2------------------|
E|--------------------------------------------------------0------------------|

A            E   E         A     E  D
Time is runnin' out of control, ooh
D             A            E  A  E
Help all my dreams come true

A            E   E         A     E  D
Time is runnin' out of control, ooh
D             A            E  A E
Help all my dreams come true


D        A       E
Here comes the night
D        A       E
Gone are the days yeah
B                   D                A
When we could just sit here and talk for hours
B          D        E
Didn't have much to say


A            E   E         A     E  D
Time is runnin' out of control, ooh
D             A            E  A E
Help all my dreams come true

A            E   E         A     E  D
Time is runnin' out of control, ooh
D             A            E  A E
Help all my dreams come true


D            A         E
Now everything seems so serious
D            A        E
We all had our fun in the sun
B              D                    A
We all wanna take too much out of life
B              D            E
Fooling ourselves in the long run


A            E   E         A     E  D
Time is runnin' out of control, ooh
D             A            E  A E
Help all my dreams come true


A            E   E         A     E  D
Time is runnin' out of control, ooh
D             A            E  A E
Help all my dreams come true


A E  


Bridge:

B
Tryin' to beat the clock
                                  E
It never stops tickin' the time away
B
Tryin' to beat the clock it
                                   A   
Never stops, never stops night or day


A            E   E         A     E  D
Time is runnin' out of control, ooh
D             A            E  A E
Help all my dreams come true


N.C.
Time is runnin' out of control, ooh
N.C.
Help all my dreams come true


A            E   E         A     E  D
Time is runnin' out of control, ooh
D             A            E  A E
Help all my dreams come true


Questions, comments, insults...BlindTerry333
Добавлено: 10.10.2015
Другие материалы по этой песне:
  • Аккорды и текст

Страница создана 05.02.2014
http://primanota.ru/cheap-trick/time-is-runnin-chords.htm
Привет, Гость.
Предлагаем пройти революционный курс по гитаре.
Подарок от PrimaNota.Ru, забирай!