PrimaNota.ru - самый крупный в мире бесплатный архив песенных текстов, аккордов, табулатур и нот


Cheap Trick - Tell Me Everything - текст песни, таба, видео

Регистрация Запомнить меня
Войти через:  Facebook Google Twitter Vk Yandex Mail.ru

Cheap Trick - Tell Me Everything - текст песни, таба, видео

Печатать
Просмотров: 123
Уроки эстрадного вокала в Санкт-Петербурге
----------------------------------------------------------------------------
                             Tell Me Everything-Cheap Trick
----------------------------------------------------------------------------
Tabbed by: Nick 
E-mail:BlindTerry333@gmail.com

Tuning:EADGBE 
From the 1994 "Woke Up With A Monster"
T. Petersson, R. Nielsen, R. Zander, Michael McDonald, Julian Raymond

Intro


E (repeats until chord change)    A

e|----0----------0-------0-------------5----------5---------5---------------|
B|------5------5---5---5-----------------5-----5----5----5------------------|
G|---------4---------4------4---------------6----------6--------------------|
D|--------------------------------------------------------------------------|
A|--------------------------------------------------------------------------|
E|--------------------------------------------------------------------------|

I think playing the A sounds better as the xxx655 but there's a few ways so pick 
whichever one you dig most.


Cool bass line at the beginning and throughout the song...

e|--------------------------------------------------------------------------|
B|--------------------------------------------------------------------------|
G|--------------------------------------------------------------------------|
D|--------9----11----9----------7-------------------------------------------|
A|--7/11-----------------9--11------11--------------------------------------|
E|--------------------------------------------------------------------------|


Verse-

E                                     A                 E
If I could have what I want I'll just want what I've got 
                                         A                 E
I told myself a million times that's the truth but it's not 
                                         A             E
I could give you some lessons on how to cry all night 
                                          A               E
I know the hurting's only started and it might never stop 

Pre-Chorus

B            F#             A
Oh, Angeline, you want some help from me now 
Asus                        B
Now since he left you alone. 
                       F#
Don't say it ain't so, 'cause you traded me for him
A           Asus A
Not so long ago 

Chorus-

E                       A Asus A
You were everything to me 
E                       A Asus A
You were everything to me 
E                          A
I don't know why but your pain
                       B
Is such a pleasure to see 
A                        E
So baby tell me everything. 

Bridge-

A
I guess you never thought that you'd be falling in love 
You've lost everything that you're dreaming of 
B                                   A        E
I can't let you go without letting you know 

E                       A Asus A
You were everything to me 
E                       A Asus A
You were everything to me 
E                           A
I don't know why but your pain 
                      B 
Is such a pleasure to see
A                       E
So baby tell me everything
Добавлено: 11.11.2013
Другие материалы по этой песне:
  • Аккорды и текст

Страница создана 11.11.2013
http://primanota.ru/cheap-trick/tell-me-everything-chords.htm
Привет, Гость.
Предлагаем пройти революционный курс по гитаре.
Подарок от PrimaNota.Ru, забирай!