PrimaNota.ru - самый крупный в мире бесплатный архив песенных текстов, аккордов, табулатур и нот


Cheap Trick - Takin Me Back - аккорды и текст, видео

Регистрация Запомнить меня
Войти через:  Facebook Google Twitter Vk Yandex Mail.ru

Cheap Trick - Takin Me Back - аккорды и текст, видео

Печатать
Просмотров: 44
Takin Me Back
Cheap Trick
-------------------------------------------------------------------------------
                        Takin' Me Back-Cheap Trick
-------------------------------------------------------------------------------
Tabbed by:Nick V.
E-mail:BlindTerry333@gmail.com

Tuning:EADGBE

Intro:
                                                    ....yeah, yeah, yeah
e|-----0-0--0-------0-0--0------0-0--0-------0-0--0-------------------------|
B|-----2-2--3-------2-2--3------2-2--3-------2-2--3-------------------------|
G|-----2-2--2-------2-2--2------2-2--2-------2-2--2-------------------------|
D|-----2-2--2-------2-2--2------2-2--2-------2-2--0-------------------------|
A|-----0-0--0-------0-0--0------0-0--0-------0-0--0-------------------------|
E|-0-3---------0-3----------0-3----------0-3--------------------------------|

[Riff #1]              [Riff #2]
e|--------------------------------------------------------------------------|
B|--------------------------------------------------------------------------|
G|--------------------------------------------------------------------------|
D|--------------------------------------------------------------------------|
A|-3-2-3--3-2-3--------5-4-5--5-4-5-----------------------------------------|
E|--------------------------------------------------------------------------|

Pre-Chorus:
    A                                  Cadd9
  "You were nice not to say it         Now, my heart....
e|--0-----------------------------------------------------------------------|
B|--2-----------------------------------------------------------------------|
G|--2-----------------------------------------------------------------------|
D|--2-----------------------------------------------------------------------|
A|--0--------------------------0-2-3----------------------------------------|
E|--------------------------------------------------------------------------|

D                          Cadd9            [Riff #1]
You're takin' me back, I remember it well
D                          Cadd9            [Riff #1]
You're takin' me back, it's so easy to tell
D                          Cadd9            [Riff #1]
You're takin' me back, I remember it well
D
You're takin' me back

   Cadd9   D   Cadd9  D  G
A long, long, long time ago
   Cadd9   D   Cadd9  D  Em
A long, long, long time ago

E                                         B5 C5 G5 F#5 E
You, you let me down, you didn't think of me
                            C#m
I, I won't forget what you did to me
 
A                             Cadd9
You were nice not to say it, now my heart isn't breakin'


D                          Cadd9            [Riff #1]
You're takin' me back, I remember it well
D                       Cadd9    D  Cadd9  D   G   
You're takin' me back a long, long, long time ago
   Cadd9   D   Cadd9  D  Em
A long, long, long time ago

E                                               B5 C5 G5 F#5 E
You, you thought that you could make a fool of me
                             C#m
Don't, don't be so sure that the fool was me


A                           Cadd9
I held up, I could take it, now my heart isn't breakin'


D                          Cadd9            [Riff #1]
You're takin' me back, I remember it well
D                          Cadd9            [Riff #1]
You're takin' me back, it's so easy to tell
D                          Cadd9            [Riff #1]
You're takin' me back, I remember it well
D
You're takin' me back


   Cadd9   D   Cadd9  D  G
A long, long, long time ago
   Cadd9   D   Cadd9  D    Em
A long, long, long time ago


Em               Cadd9
A long time ago, a long time ago
    Am                  Em
A long time ago you were breakin' my heart
           G            G/F#  Em
I never found all the parts
Em               Am               Bm
A long time ago, a long time ago, a long time ago


D                          Cadd9            [Riff #1]
You're takin' me back, I remember it well
D                          Cadd9            [Riff #1]
You're takin' me back, it's so easy to tell
D                          Cadd9            [Riff #1]
You're takin' me back, it's written on my face
D                          Cadd9            [Riff #1]
You're takin' me back, it's so easy to tell


E                      D                   [Riff #2]
You're takin' me back, I remember it well
         E             D                   [Riff #2]
You're takin' me back, it's so easy to tell
E                      D                   [Riff #2]
You're takin' me back, I remember it well
E
You're takin' me back

    A    E     D    E     A 
A long, long, long time ago

    A    E     D    E     A 
A long, long, long time ago

    A    E     D    E     A 
A long, long, long time ago

  A    E     D    E     A 
A long, long, long time ago


Am D Cadd9 Em

Outro:
e|-----0-0--0-------0-0--0------0-0--0-------0-0--0-------------------------|
B|-----2-2--3-------2-2--3------2-2--3-------2-2--3-------------------------|
G|-----2-2--2-------2-2--2------2-2--2-------2-2--2-------------------------|
D|-----2-2--2-------2-2--2------2-2--2-------2-2--2-------------------------|
A|-----0-0--0-------0-0--0------0-0--0-------0-0--0-------------------------|
E|-0-3---------0-3----------0-3----------0-3--------------------------------|

Questions, comments, insults...BlindTerry333
Добавлено: 10.10.2015
Другие материалы по этой песне:
  • Аккорды и текст

Страница создана 20.11.2013
http://primanota.ru/cheap-trick/takin-me-back-chords.htm
Привет, Гость.
Предлагаем пройти революционный курс по гитаре.
Подарок от PrimaNota.Ru, забирай!