PrimaNota.ru - самый крупный в мире бесплатный архив песенных текстов, аккордов, табулатур и нот


Cheap Trick - Southern Girls - аккорды и текст, видео

Регистрация Запомнить меня
Войти через:  Facebook Google Twitter Vk Yandex Mail.ru

Cheap Trick - Southern Girls - аккорды и текст, видео

Печатать
Просмотров: 132
Авторы: Tom Petersson, Rick Nielsen

Southern Girls
Cheap Trick
Artist: Cheap Trick
Title: Southern Girls
Album: In Color

Composed by Rick Nielsen
Tabbed by Chris Clark

Comments and crits to: drclueful@hotmail.com

###

Tab: Guitar
Tuning: Standard

Verse and chorus

    E   B   A(sus4)
e --0-------------I
B --0---4---2(3)--I
G --1---4---2-----I
D --2---4---2-----I
A --2---2---0-----I
E --0-------------I

Bridge-solo

    B
e ----------------------------------I
B ----------------------------------I
G ----------------------7-----7-----I
D --9--7--9-------7--9--7--9--7--9--I
A --9--7--9-------7--9--7--9--7--9--I
E --7--7--7-------7--7-----7-----7--I

Bridge-vocals

    B    D    B    F#   A
e -----------------2-------I
B --4----7----4----2----2--I
G --4----7----4----3----2--I
D --4----7----4----4----2--I
A --2----5----2----4----0--I
E -----------------2-------I

###

_________________________________________________________________
     
Добавлено: 14.08.2013
Другие материалы по этой песне:
  • Аккорды и текст

Страница создана 29.05.2012
http://primanota.ru/cheap-trick/southern-girls-chords.htm
Привет, Гость.
Предлагаем пройти революционный курс по гитаре.
Подарок от PrimaNota.Ru, забирай!