PrimaNota.ru - самый крупный в мире бесплатный архив песенных текстов, аккордов, табулатур и нот


Cheap Trick - Saturday at Midnight - аккорды и текст, видео

Регистрация Запомнить меня
Войти через:  Facebook Google Twitter Vk Yandex Mail.ru

Cheap Trick - Saturday at Midnight - аккорды и текст, видео

Печатать
Просмотров: 45
Saturday at Midnight
Cheap Trick
-------------------------------------------------------------------------------
                           Saturday At Midnight-Cheap Trick
-------------------------------------------------------------------------------
Tabbed by:Nick V.
E-mail:BlindTerry333@gmail.com

From 1982's "One on One"

Tuning:EADGBE


(Riff #1)

  Saturday at midnight...
e|---------------------------------------------------------------------------|
B|--------------------------------------10-9---------------------------------|
G|---------------------------9b-9--7--9--------------------------------------|
D|---------------------------------------------------------------------------|
A|---------------------------------------------------------------------------|
E|---------------------------------------------------------------------------|


(Riff #1)

  See you at the red light...
e|---------------------------------------------------------------------------|
B|--------------------------------------10-9---------------------------------|
G|---------------------------9b-9--7--9--------------------------------------|
D|---------------------------------------------------------------------------|
A|---------------------------------------------------------------------------|
E|---------------------------------------------------------------------------|

Saturday at midnight (Riff #1)
See you at the red light (Riff #1)
Don't wanna be alone 
Saturday at midnight (Riff #1)


Am                     F
I can't wait for a call, it's just not my style
Am                     F
Been alone too long but in a little while
Am                     F
When night closes in and lights are gettin' bright
Am                     F
Makes it all worthwhile, makes it all worthwhile tonight


Saturday at midnight (Riff #1)
See you at the red light (Riff #1)
Don't wanna be alone 
Saturday at midnight (Riff #1)


Am                     F
I work hard every day every day of my life
Am                 F
My reward is to make a better life
Am                     F
'Cause I live for the weekend and what I wanna do
Am                          F
Is search for that someone so my dreams come true


Saturday at midnight (Riff #1)
See you at the red light (Riff #1)
Don't wanna be alone 
Saturday at midnight (Riff #1)


A
There's a lot of things that seem to go round
                                        D  E
Like the world and the love and the fun
A
There's a lot of things that seem to go round
                                      D  E
But the girls and the love I get none


Saturday at midnight, I don't want to go home


Am                     F
I can't wait for a call, it's just not my style
Am                     F
Been alone too long but in a little while
Am                     F
When night closes in and lights are gettin' bright
Am                     F
Makes it all worthwhile, makes it all worthwhile tonight


Saturday at midnight (Riff #1)
See you at the red light (Riff #1)
Don't wanna be alone 
Saturday at midnight (Riff #1)


Saturday at midnight (Riff #1)
See you at the red light (Riff #1)
Don't wanna be alone 
Saturday at midnight (Riff #1)


Questions, comments, insults...BlindTerry333
Добавлено: 10.10.2015
Другие материалы по этой песне:
  • Аккорды и текст

Страница создана 16.02.2014
http://primanota.ru/cheap-trick/saturday-at-midnight-chords.htm
Привет, Гость.
Предлагаем пройти революционный курс по гитаре.
Подарок от PrimaNota.Ru, забирай!