PrimaNota.ru - самый крупный в мире бесплатный архив песенных текстов, аккордов, табулатур и нот


Cheap Trick - Pop Drone - аккорды и текст, видео

Регистрация Запомнить меня
Войти через:  Facebook Google Twitter Vk Yandex Mail.ru

Cheap Trick - Pop Drone - аккорды и текст, видео

Печатать
Просмотров: 63
Pop Drone
Cheap Trick
-------------------------------------------------------------------------------
                             Pop Drone-Cheap Trick
-------------------------------------------------------------------------------
Tabbed by:Nick V.
E-mail:BlindTerry333@gmail.com

Tuning:EADGBE

Intro/Verse:

[Riff #1]
                        D                                D
e|-2/5--5-5---5/7--7---------------2/5--5-5--5/7--7---------------------|
B|----------------------------------------------------------------------|
G|-2/5--5-5---5/7--7---------------2/5--5-5--5/7--7---------------------|
D|----------------------------------------------------------------------|
A|----------------------------------------------------------------------|
E|----------------------------------------------------------------------|

                        Bm              D                   
e|-2/5--5-5---5/7--7-------2----------0----2--------2-------------------|
B|----------------------------3-----3--------3------3-------------------|
G|-2/5--5-5---5/7--7-------------4-------------2----2-------------------|
D|--------------------------------------------------0-------------------|
A|--------------------------------------------------0-------------------|
E|----------------------------------------------------------------------|

Pre-Chorus:

[Riff #2]
              D                   Em
e|-3-3--3/5---------3-3--3/5--5-----------------------------------------|
B|----------------------------------------------------------------------|
G|-3-3--3/5---------3-3--3/5--5-----------------------------------------|
D|----------------------------------------------------------------------|
A|----------------------------------------------------------------------|
E|----------------------------------------------------------------------|

[Riff #1]              D       [Riff #1]             D
If I ever get back home again, if I ever get back to you
[Riff #1]              D         [Riff #1]                      D
I won't care if the sun never shines,'cause you're all I want to do

[Riff #2]                    D
All that lays in front of us won't get left behind
[Riff #2]                   D
'Cause I can see just fine around you

Bm           G          Em D
Sorry I'm not colorblind   I can see just fine (You're all I wanna do)
Bm           G                Em D
I can see just fine around you   (You're all I ever wanna do)
Bm           G           Em D
Maybe I'm just colorblind    I can see just fine (You're all I wanna do)
Bm           G                Em  D
Sorry I'm just blind around you    (All I wanna do)


[Riff #1]              D       [Riff #1]               D
If I ever get back home tonight, if I ever get lost in you
[Riff #1]              D         [Riff #1]                        D
I won't care if the moon never shines,'cause you're all I want to do


[Riff #2]                    D
All that lays in front of us won't get left behind
[Riff #2]                   D
'Cause I can see just fine around you



Bm           G          Em D
Sorry I'm not colorblind   I can see just fine (You're all I wanna do)
Bm           G                Em D
I can see just fine around you   (You're all I ever wanna do)
Bm           G           Em D
Maybe I'm just colorblind    I can see just fine (You're all I wanna do)
Bm           G                Em  D
Sorry I'm just blind around you    (All I wanna do)

Solo:

D  A

Bm           G          Em D
Sorry I'm not colorblind   I can see just fine (You're all I wanna do)
Bm           G                Em D
I can see just fine around you   (You're all I ever wanna do)
Bm           G           Em D
Maybe I'm just colorblind    I can see just fine (You're all I wanna do)
Bm           G                Em  D
Sorry I'm just blind around you    (All I wanna do)

All I wanna do...[x4]

  Bm                      D                   
e|--2---------0---2--------------------------------------------------------|
B|----3-----3-------3------------------------------------------------------|
G|-------4-------------2---------------------------------------------------|
D|-------------------------------------------------------------------------|
A|-------------------------------------------------------------------------|
E|-------------------------------------------------------------------------|


Questions, comments, insults...BlindTerry333
Добавлено: 10.10.2015
Другие материалы по этой песне:
  • Аккорды и текст

Страница создана 14.08.2013
http://primanota.ru/cheap-trick/pop-drone-chords.htm
Привет, Гость.
Предлагаем пройти революционный курс по гитаре.
Подарок от PrimaNota.Ru, забирай!