PrimaNota.ru - самый крупный в мире бесплатный архив песенных текстов, аккордов, табулатур и нот


Cheap Trick - One On One - аккорды и текст, таба, видео

Регистрация Запомнить меня
Войти через:  Facebook Google Twitter Vk Yandex Mail.ru

Cheap Trick - One On One - аккорды и текст, таба, видео

Печатать
Просмотров: 145
One On One
Cheap Trick
artist:  Cheap Trick
title:  One On One
album:  One On One
key:  D
tuning:  standard

intro

G----------------------------------------------------------------------|
D----------------------------------------------------------------------|
A----------------2---------------2------------------2----------------2-|
E-0-1-2----2-5-2---2-5-2---2-5-2-----0-1-2----2-5-2---2-5-2----2-5-2---|

G------------------------------------------------------------------------|
D------------------------------------------------------------------------|
A----------------2---------------2------------------2----------------2---|
E--0-1-2---2-5-2---2-5-2---2-5-2------0-1-2---2-5-2---2-5-2----2-5-2-----|


first verse

G-----------------------------------------------------------------------|
D---------------2----------------2--------------------------------------|
A-0-1-2---2-5-2---2-5-2----2-5-2--------------------2----------------2--|
E-------------------------------------0-1-2---2-5-2---2-5-2----2-5-2----|
  Reputation is a fragile thing       Fame and money don't mean much to me

G-------------------------------------------------------------------------|
D---------------------------------------------------2-----------------2---|
A------------------------------------0-1-2----2-5-2---2-5-2-----2-5-2-----|
E--2-1-0---0-3-0-5-0-3-0-0-3-0-5----------------------------------------2-|
   Don't go change to prove a point  It doesn't matter                 no

second verse

We've had our problems and we've had our fun
Did a lot of living on the run
Don't go cover up the truth cause we're together


chorus

but it's (B)One (D)on (E)one
(A)one (E)on (A)one
it's (B) you and (D)me against the (E)world it's one on one

third verse

Head is spinning and your mouth is dry
Happiness you couldn't find or buy
Ever want something so bad you can taste it?

fourth verse

Made the deadline and you passed the test
Sabotage seems safer than success
Put it off until tomorrow
I've heard it all before

chorus


bridge

(E)I need some time to think the whole thing over
(G)you say you don't want to sail the world alone
(A)I want to taste and test the waters with you
It's not so easy when your on your (E)own

fifth verse

Don't lie to me that's all I ask of you
No excuses I just want the truth
Reputation is a fragile thing, I know we know it

chorus to fade

*note after the second time, I believe, the chorus moves up one half step
to fade

comments, questions to senomar@bach.udel.edu
                 -I'm here, I'm queer, I play 5-string bass
Добавлено: 23.07.2012
Другие материалы по этой песне:
  • Аккорды и текст

Страница создана 11.05.2012
http://primanota.ru/cheap-trick/one-on-one-chords.htm
Привет, Гость.
Предлагаем пройти революционный курс по гитаре.
Подарок от PrimaNota.Ru, забирай!