PrimaNota.ru - самый крупный в мире бесплатный архив песенных текстов, аккордов, табулатур и нот


Cheap Trick - Oh Caroline - текст песни, таба, видео

Регистрация Запомнить меня
Войти через:  Facebook Google Twitter Vk Yandex Mail.ru

Cheap Trick - Oh Caroline - текст песни, таба, видео

Печатать
Просмотров: 130
Oh Caroline
Cheap Trick
Written by Rick Nielsen
Album: In Color (1977)
Tabbed by: Dana P. (danap@exchangenet.net)


Intro:
Dm / Am / Gm
Dm / Am / Gm
Gm / Am / Dm
Am / Gm / Dm

Intro Solo:
E--------------------------------------10---------------------------------------10---
B------------------------------------------------------------------------------------
G--12b(14)r12--10------12b(14)r12--10--------12b(14)r12--10------12b(14)r12--10------
D-----------------12----------------------------------------12-----------------------
A------------------------------------------------------------------------------------
E------------------------------------------------------------------------------------

E--9/10--13--9--10----9b(10)--5h7p5---------------------------
B-------------------------------------------------------------
G------------------------------------5b(7)r5--5---------------
D-----------------------------------------------7--7-5-0-0----
A-------------------------------------------------------------
E-------------------------------------------------------------


Verse 1:
Gm              Dm
Oh Caroline, my life shined when you walked in
Gm               Dm
Oh Caroline, my world shined when you came in


Pre-Chorus:
Am
And if I go all over the world
Gm                      Dm
I wouldn't find another lover like you
Am                        Gm
And if I knew a million girls, Caroline


Chorus:
Am                                   Gm
Go to the end of the world for your love
Am                                  (Dm   Am   Gm) x 2
Go to the end of the world for your love


Verse 2:
Gm               Dm
Oh Caroline, my heart climbed when you came in
Gm                 Dm
Oh Caroline, life means more since you came in


Pre-Chorus:
Am
And if I go all over the world
Gm
I wouldn't find another lover like you
Am                        Gm
And if I knew a million girls, Caroline
Добавлено: 15.07.2012
Другие материалы по этой песне:

Страница создана 30.05.2012
http://primanota.ru/cheap-trick/oh-caroline-chords.htm
Привет, Гость.
Предлагаем пройти революционный курс по гитаре.
Подарок от PrimaNota.Ru, забирай!