PrimaNota.ru - самый крупный в мире бесплатный архив песенных текстов, аккордов, табулатур и нот


Cheap Trick - Never Run Out Of Love - аккорды и текст, видео

Регистрация Запомнить меня
Войти через:  Facebook Google Twitter Vk Yandex Mail.ru

Cheap Trick - Never Run Out Of Love - аккорды и текст, видео

Печатать
Просмотров: 66
Never Run Out Of Love
Cheap Trick
-------------------------------------------------------------------------------
                          Never Run Out of Love-Cheap Trick
-------------------------------------------------------------------------------
Tabbed by:Nick V.
E-mail:BlindTerry333@gmail.com

From 1994's Woke Up With a Monster.

Tuning:EADGBE


[Riff #1]        
e|------------0----------------------------------------------------------------|
B|------------0----------------------------------------------------------------|
G|------------1----------------------------------------------------------------|
D|------------2----------------------------------------------------------------|
A|------------2----------------------------------------------------------------|
E|-0-3b-0-3b--0----------------------------------------------------------------|


Verse:
       E
I will never run out of love for you
     Asus2                 Bsus4
I'll never run out of love

B
Midnight, don't seem right
E
I lie awake just wonderin' about you
B                        [Riff #1]
Wound up much too tight
E
Can't think about livin' without you
       C#m             E       
The day you put your spell on me
      C#m                    F#m
I guess I was the last to know
      Bsus                      B
So, please remember before you go


Chorus:
         E    
That I will never run out of love for you
      Asus2                Bsus4
I'll never run out of love
          E
I will never run out of love for you
      Asus2       
Got more than enough, more than enough
             E                Bsus
No, I will never run out of love


Verse:
B
For so long, deep and strong 
E
Love flowed mighty as a river
B                     [Riff #1]
Long road, heavy load 
E
Hard times couldn't keep us apart
         C#m                        E
Never thought you would break the promise, oh no
         C#m                         F#m
Now it seems there's a part of me that just can't let you go
     Bsus                          B
So, please remember that you can come back home


Chorus:
         E    
I will never run out of love for you
      Asus2                Bsus4
I'll never run out of love
          E
I will never run out of love for you
      Asus2       
Got more than enough, more than enough
             E                Bsus
No, I will never run out of love\


Bridge:
C#m
No, no baby, don't you leave me
A 
No, no baby, don't go
C#m
No, no baby, if you run away
A
I still hope you know
    Bsus       B
I need you so
    Bsus       B
I can't take no more


Chorus:
         E    
I will never run out of love for you
      Asus2                Bsus4
I'll never run out of love
          E
I will never run out of love for you
      Asus2       
Got more than enough, more than enough
             E                Bsus
No, I will never run out of love

         E    
I will never run out of love for you
      Asus2                Bsus4
I'll never run out of love
          E
I will never run out of love for you
      Asus2       
Got more than enough, more than enough
             E                Bsus
No, I will never run out of love


  Asus2  Bsus4  Bsus
e|-0-----0---------------------------------------------------------------------|
B|-0-----0-------5-------------------------------------------------------------|
G|-2-----4-------4-------------------------------------------------------------|
D|-2-----4-------4-------------------------------------------------------------|
A|-0-----2-------2-------------------------------------------------------------|
E|-----------------------------------------------------------------------------|


Questions, comments, insults....BlindTerry333
Добавлено: 10.10.2015
Другие материалы по этой песне:
  • Аккорды и текст

Страница создана 20.01.2014
http://primanota.ru/cheap-trick/never-run-out-of-love-chords.htm
Привет, Гость.
Предлагаем пройти революционный курс по гитаре.
Подарок от PrimaNota.Ru, забирай!