PrimaNota.ru - самый крупный в мире бесплатный архив песенных текстов, аккордов, табулатур и нот


Cheap Trick - It's Only Love - аккорды и текст, видео

Регистрация Запомнить меня
Войти через:  Facebook Google Twitter Vk Yandex Mail.ru

Cheap Trick - It's Only Love - аккорды и текст, видео

Печатать
Просмотров: 114
Уроки эстрадного вокала в Санкт-Петербурге
It's Only Love
Cheap Trick
-------------------------------------------------------------------------------
                             It's Only Love-Cheap Trick
-------------------------------------------------------------------------------
Tabbed by:Nick V.
E-mail:BlindTerry333@gmail.com

Tuning:EADGBE

Em


Am  G  [x2]


e|-10-----10------------------------10----10------------------------------|
B|----13-----13---13-12--13-12---------13----13------13-12--13-12--13-12--|
G|------------------------------------------------------------------------|
D|------------------------------------------------------------------------|
A|------------------------------------------------------------------------|
E|------------------------------------------------------------------------|


C                        Em
Lonely days and lonely nights
                F                       
Seeming so much longer with the phone lines
C                                 Em
Torn between decisions wrong or right
                F
Ooh, I wish I knew the stars tonight
Am
'Cause you could look around and see
                                 G
The moving pictures of my mind's eye


C      G    F            C    F  C  G
It's only love, it's a miracle
G
It's a wonder
C     G     F            C    F  C     
It's only love, it's a miracle


Am  G  


e|-10-----10------------------------10----10------------------------------|
B|----13-----13---13-12--13-12---------13----13------13-12--13-12--13-12--|
G|------------------------------------------------------------------------|
D|------------------------------------------------------------------------|
A|------------------------------------------------------------------------|
E|------------------------------------------------------------------------|


C                                Em
There we meet at some forgotten point
                       F 
On the streets of New York or was it London town?
C                            Em
Maybe we were daydreaming out loud
                      G
Or maybe we were nowhere, it doesn't matter now
Am
'Cause you mean more to me than any hope or any dream
       G
I know now


C      G    F            C    F  C  G
It's only love, it's a miracle
G
It's a wonder
C     G     F            C    F  C      
It's only love, it's a miracle


Am  G


e|-10-----10------------------------10----10------------------------------|
B|----13-----13---13-12--13-12---------13----13------13-12--13-12--13-12--|
G|------------------------------------------------------------------------|
D|------------------------------------------------------------------------|
A|------------------------------------------------------------------------|
E|------------------------------------------------------------------------|


Bridge:


When I say I miss you then I mean that I need you

e|-6-5-3--6-5-3--6-5-3--6-5-3--6-5-3--6-5-3--6-5-3---------------------------|
B|---------------------------------------------------------------------------|
G|---------------------------------------------------------------------------|
D|---------------------------------------------------------------------------|
A|---------------------------------------------------------------------------|
E|---------------------------------------------------------------------------|

When I say I need you then I mean that I miss you now

e|-8-7-5--8-7-5--8-7-5--8-7-5--8-7-5--8-7-5--8-7-5---------------------------|
B|---------------------------------------------------------------------------|
G|---------------------------------------------------------------------------|
D|---------------------------------------------------------------------------|
A|---------------------------------------------------------------------------|
E|---------------------------------------------------------------------------|


C      G    F            C    F  C  G
It's only love, it's a miracle
G
It's a wonder
C     G     F            C    F  C     
It's only love, it's a miracle


Am  G


e|-10-----10------------------------10----10------------------------------|
B|----13-----13---13-12--13-12---------13----13------13-12--13-12--13-12--|
G|------------------------------------------------------------------------|
D|------------------------------------------------------------------------|
A|------------------------------------------------------------------------|
E|------------------------------------------------------------------------|


C      G    F            C    F  C  G
It's only love, it's a miracle
G
It's a wonder
C     G     F            C    F  C      
It's only love, it's a miracle


Am  G


e|-10-----10------------------------10----10------------------------------|
B|----13-----13---13-12--13-12---------13----13------13-12--13-12--13-12--|
G|------------------------------------------------------------------------|
D|------------------------------------------------------------------------|
A|------------------------------------------------------------------------|
E|------------------------------------------------------------------------|


Questions, comments, insults...BlindTerry333
Добавлено: 10.10.2015
Другие материалы по этой песне:
  • Аккорды и текст

Страница создана 22.08.2013
http://primanota.ru/cheap-trick/its-only-love-chords.htm
Привет, Гость.
Предлагаем пройти революционный курс по гитаре.
Подарок от PrimaNota.Ru, забирай!