PrimaNota.ru - самый крупный в мире бесплатный архив песенных текстов, аккордов, табулатур и нот


Cheap Trick - In The Street - таба, видео

Регистрация Запомнить меня
Войти через:  Facebook Google Twitter Vk Yandex Mail.ru

Cheap Trick - In The Street - таба, видео

Печатать
Просмотров: 102
I've tabbed this version to end in the way "That 70's show" theme ends

All guitars and bass included

MAKE SURE BASS IS IN DROP D TUNING (DADGBE). ALL OTHER INSTRUMENTS ARE STANDARD TUNING

Couldn't quite figure out the solo sorry everyone.
 Enjoy!


~ Hold
/ Slide up

Intro
 | Guitar 1
E|-----|--------------------------------------------------|
B|-----|--------------------------------------------------|
G|-----|--------------------------------------------------|
D|-----|-------------0~~~~~~~~----------------0~~~~~~~~---|    
A|-----|-------0-1-2--------------------0-1-2-------------|
E|-----|-0-1-2--------------------0-1-2-------------------|
 |                                                           
 | Guitar 2
E|-----|--------------------------------------------------|
B|-----|--------------------------------------------------|
G|-777-|-------------7--7--12-7---------------7--7--12-7--|
D|-777-|-------------7--7--12-7---------------7--7--12-7--|    x2
A|-555-|-------------5--5--10-5---------------5--5--10-5--|
E|-----|--------------------------------------------------|
 |
 | Bass (Drop D)
G|-----|--------------------------------------------------|
D|-----|--------------------------------------------------|
A|-----|-------0-1-2--------------------0-1-2-------------|
D|---0-|-2-3-4-------0-----5--0---2-3-4-------0-----5--0--|


Verse
 | Guitar 1
E|---------------|---2-----0-------3-----2-----------0-----3-----3-----3-----3----|
B|---------------|-----3-----3---3---3-----3---3-------3-----3-----3-----3-----3--|
G|---------------|-2-----2-----2-------2-----2---2-0-----0-----0-----0-----0-----0|
D|---------------|-0--------------------------------------------------------------|    
A|-------0-1-2---|----------------------------------------------------------------|
E|-0-1-2---------|----------------------------------------------------------------|
 |                                                                                   
 | Guitar 2
E|---------------|----------------------------------------------------------------|
B|---------------|----------------------------------------------------------------|
G|---------------|-7~~~~~~~~~~~~~~~~~~~~~~~~-------5~~~~~~~~~~~~~~~~~~~~~~~~------|
D|---------------|-7~~~~~~~~~~~~~~~~~~~~~~~~-------5~~~~~~~~~~~~~~~~~~~~~~~~------|   x2
A|---------------|-5~~~~~~~~~~~~~~~~~~~~~~~~-------3~~~~~~~~~~~~~~~~~~~~~~~~------|
E|---------------|----------------------------------------------------------------|
 |
 | Bass (Drop D)
G|---------------|----------------------------------------------------------------|
D|---------------|----------------------------------------------------------------|
A|-------0-1-2---|----------------------------------------------------------------|
D|-2-3-4---------|-0-----------------0-2-3-3-2-1-0-----------------0-2-3-3-2-1-0--|
                   Hangin'  out                  Down  the  Street 0-2-3-3-2-0-2--|(last) 
                   The same old thing              We did last week

Chorus
 | Guitar 1
E|----------------------------------------|
B|--------3-------3-------3--------3------|
G|----------0-------0-------0--------0----|
D|------0-------0-------0--------0--------|    
A|----------------------------------------|
E|----3-------2-------0--------0----------|
 |                                         
 | Guitar 2
E|----------------------------------------|
B|----------------------------------------|
G|----------------------------------------|
D|----5-------4-------2-------------------|   x3 
A|----5-------4-------2-------------------|
E|----3-------2-------0-------------------|
 |
 | Bass (Drop D)
G|----------------------------------------|
D|----------------------------------------|
A|----------------------------------------|
D|----5-------4-------2-------------------|
Not a thing   to      do
BUT TALK      to      you
Not a thing   to      do,    out in the street

Post-Chorus
 | Guitar 1
E|-----------------------------------------|
B|-----------------------------------------|
G|-----------------------------------------|
D|---------------------------0~~~~~~~~-----|    
A|---------------------0-1-2---------------|
E|---------------0-1-2---------------------|
 |
 | Guitar 2
E|-----------------------------------------|
B|-----------------------------------------|
G|--7--7--12-7---------------7--7--12-7----|
D|--7--7--12-7---------------7--7--12-7----|    
A|--5--5--10-5---------------5--5--10-5----|
E|-----------------------------------------|
 |
 | Bass (Drop D)
G|-----------------------------------------|
D|-----------------------------------------|
A|---------------------0-1-2---------------|
D|--0-----5--0---2-3-4-------0-----5--0----|
                          Oh yeah

Verse
 | Guitar 1
E|---------------|---2-----0-------3-----2-----------0-----3-----3-----3-----3----|
B|---------------|-----3-----3---3---3-----3---3-------3-----3-----3-----3-----3--|
G|---------------|-2-----2-----2-------2-----2---2-0-----0-----0-----0-----0-----0|
D|---------------|-0--------------------------------------------------------------|    
A|-------0-1-2---|----------------------------------------------------------------|
E|-0-1-2---------|----------------------------------------------------------------|
 |                                                                                   
 | Guitar 2
E|---------------|----------------------------------------------------------------|
B|---------------|----------------------------------------------------------------|
G|---------------|-7~~~~~~~~~~~~~~~~~~~~~~~~-------5~~~~~~~~~~~~~~~~~~~~~~~~------|
D|---------------|-7~~~~~~~~~~~~~~~~~~~~~~~~-------5~~~~~~~~~~~~~~~~~~~~~~~~------|  x2  
A|---------------|-5~~~~~~~~~~~~~~~~~~~~~~~~-------3~~~~~~~~~~~~~~~~~~~~~~~~------|
E|---------------|----------------------------------------------------------------|
 |
 | Bass (Drop D)
G|---------------|----------------------------------------------------------------|
D|---------------|----------------------------------------------------------------|
A|-------0-1-2---|----------------------------------------------------------------|
D|-2-3-4---------|-0-----------------0-2-3-3-2-1-0-----------------0-2-3-3-2-1-0--|
                   Mom and dad                     Live upstairs   0-2-3-3-2-0-2--|(last)
                   Our music's loud                So we don't care

Chorus
 | Guitar 1
E|--------------------------------------|
B|------3-------3-------3--------3------|
G|--------0-------0-------0--------0----|
D|----0-------0-------0--------0--------|    
A|--------------------------------------|
E|--3-------2-------0--------0----------|
 |                                         x3
 | Guitar 2
E|--------------------------------------|
B|--------------------------------------|
G|--------------------------------------|
D|--5-------4-------2-------------------|    
A|--5-------4-------2-------------------|
E|--3-------2-------0-------------------|
 |
 | Bass (Drop D)
G|----------------------------------------|
D|----------------------------------------|
A|----------------------------------------|
D|--5-------4-------2---------------------|
    Ni  -   xon's   gone
but ROCK    lives   on
    ooooohhhhhhhhh yeaaaaaaaahhh

Bridge
 | Guitar 1
E|---------------------------------------------------------------------|
B|----------4---------------4---------------4---------------4----------|
G|------4-------4-------4-------4-------4-------4-------4-------4------|
D|---------------------------------------------------------------------|    
A|--2-------------0----------------------------------------------------|
E|----------------------------------4-------------3--------------------|
 |
 | Guitar 2
E|---------------------------------------------------------------------|
B|---------------------------------------------------------------------|
G|--4-------------2----------------------------------------------------|
D|--4-------------2-----------------6-------------5--------------------|    
A|--2-------------0-----------------6-------------5--------------------|
E|----------------------------------4-------------3--------------------|
 |
 | Bass (Drop D)
G|---------------------------------------------------------------------|
D|---------------------------------------------------------------------|
A|--2-------------0----------------------------------------------------|
D|----------------------------------6-------------5--------------------|
  ...eeeeeaaaaaaaaaaahhhh

 | Guitar 1
E|-------------------------------------------------|-----------------------------------|
B|-------------------------------------------------|-----------------------------------|
G|--11-11-11-11-11-11-11-11-11-11-11-11-11-11-11-11|--4/6-----9-9-9--------------------|
D|--11-11-11-11-11-11-11-11-11-11-11-11-11-11-11-11|--4/6-----9-9-9-9------------------|
A|--9--9--9--9--9--9--9--9--9--9--9--9--9--9--9--9-|--2/4-----7-7-7-9------------------|
E|-------------------------------------------------|----------------7------------------|
 |                                                x3
 | Guitar 2
E|-------------------------------------------------|-----------------------------------|
B|-------------------------------------------------|-----------------------------------|
G|-------------------------------------------------|-----------------------------------|
D|-------------------------------------------------|-----------------------------------|
A|-------------------------------------------------|-----------------------------------|
E|-------------------------------------------------|-----------------------------------|
 
 | Bass (Drop D)
G|-------------------------------------------------|-----------------------------------|
D|-------------------------------------------------|----------2-2-2--------------------|
A|--9--9--9--9--7--7--7--7--5--5--5--5--4--4--4--4-|---4------------2------------------|
D|-------------------------------------------------|-----------------------------------|
    We're       still       rock   -    in'        YEEEEAAAAAHH
    in          Wis    -    con    -    sin
We're   all   alright We're    all    alright

Solo
 | Guitar 1
E|----------------------------------------------------------------------|
B|-----SOLO-------------------------------------------------------------|
G|--------------------SOLO----------------------------------------------|
D|------------------------------------SOLO------------------------------|
A|-----------------------------------------------------SOLO-------------|
E|----------------------------------------------------------------------|
 |                                
 | Guitar 2
E|----------------------------------------------------------------------|
B|----------------------------------------------------------------------|
G|------------------------7---12---7----------------7---12---7----------|
D|--------------0---------7---12---7----------------7---12---7----------|
A|--------0-1-2-----------5---10---5----------------5---10---5----------|
E|--0-1-2---------------------------------------------------------------|
|
 | Bass (Drop D)
G|----------------------------------------------------------------------|
D|----------------------------------------------------------------------|
A|--------0-1-2---------------------------------------------------------|
D|--2-3-4-------0-------------5----0----------------0---5----0----------|



Bridge 2
 | Guitar 1
E|---------------------------------------------------------------------------------------|
B|---------------------------------------------------------------------------------------|
G|---------------------------------------------------------------------------------------|
D|---------------------------------------------------------------------------------------|
A|---------------------------------------------------------------------------------------|
E|---------------------------------------------------------------------------------------|
 |                                
 | Guitar 2
E|---------------------------------------------------------------------------------------|
B|---------------------------------------------------------------------------------------|
G|---------------------------------------------------------------------------------------|
D|------------------------------------------------------------------------7-7-7-7-7-7-7-7|
A|------------------------------------------------------------------------7-7-7-7-7-7-7-7|
E|------------------------------------------------------------------------5-5-5-5-5-5-5-5|
 |
 | Bass (Drop D)
G|---------------------------------------------------------------------------------------|
D|---------------------------------------------------------------------------------------|
A|---------------------------------------------------------------------------------------|
D|-0------------------0------------------0---------------0----------------0-0-0-0-0-0-0-0|
   I'll steal a car   And drive on down  pick you up     and we'd drive around

Chorus
 | Guitar 1
E|----------------------------------------|
B|--------3-------3-------3--------3------|
G|----------0-------0-------0--------0----|
D|------0-------0-------0--------0--------|    
A|----------------------------------------|
E|----3-------2-------0--------0----------|
 |                                         
 | Guitar 2
E|----------------------------------------|
B|----------------------------------------|
G|----------------------------------------|
D|----5-------4-------2-------------------|   x3
A|----5-------4-------2-------------------|
E|----3-------2-------0-------------------|
 |
 | Bass (Drop D)
G|----------------------------------------|
D|----------------------------------------|
A|----------------------------------------|
D|----5-------4-------2-------------------|
Not a thing   to      do
But talk      to      you
Not a thing   to      do,      oohhhh

Bridge
 | Guitar 1
E|---------------------------------------------------------------------|
B|----------4---------------4---------------4---------------4----------|
G|------4-------4-------4-------4-------4-------4-------4-------4------|
D|---------------------------------------------------------------------|    
A|--2-------------0----------------------------------------------------|
E|----------------------------------4-------------3--------------------|
 |
 | Guitar 2
E|---------------------------------------------------------------------|
B|---------------------------------------------------------------------|
G|--4-------------2----------------------------------------------------|
D|--4-------------2-----------------6-------------5--------------------|    
A|--2-------------0-----------------6-------------5--------------------|
E|----------------------------------4-------------3--------------------|
 |
 | Bass (Drop D)
G|---------------------------------------------------------------------|
D|---------------------------------------------------------------------|
A|--2-------------0----------------------------------------------------|
D|----------------------------------6-------------5--------------------|
    Yyeeeeeeeeeeeeeeeeeaaaaaaaaaaaaaaaaaaaaaaaaaaaaaaahhhhhh

Chorus
 | Guitar 1
E|----------------------------------------|-------------------------------|
B|----------------------------------------|-------------------------------|
G|----------------------------------------|-------------------------------|
D|----5-------4-------2-------------------|-------------------------------|
A|----5-------4-------2-------------------|------------------------0-1-2--|
E|----3-------2-------0-------------------|------------------0-1-2--------|
 |                                       x3
 | Guitar 2
E|----------------------------------------|-------------------------------|
B|----------------------------------------|-------------------------------|
G|----------------------------------------|--7---7----12--7---------------|
D|----5-------4-------2-------------------|--7---7----12--7---------------|
A|----5-------4-------2-------------------|--5---5----10--5---------------|
E|----3-------2-------0-------------------|-------------------------------|
 |
 | Bass (Drop D)
G|----------------------------------------|-------------------------------|
D|----------------------------------------|-------------------------------|
A|----------------------------------------|------------------------0-1-2--|
D|----5-------4-------2-------------------|--0--------5---0--2-3-4--------|
Not a thing   to      do
But talk      to      you
Not a thing   to      do,    out in the street

 | Guitar 1
E|----------------------------------------|----------------------------------------------|
B|----------------------------------------|----------------------------------------------|
G|----------------------------------------|----------------------------------------------|
D|----5-------4-------2-------------------|------------------------------0~~~~~~~~~~~~~~-|
A|----5-------4-------2-------------------|------------------------0-1-2-----------------|
E|----3-------2-------0-------------------|------------------0-1-2-----------------------|
 |                                       x2
 | Guitar 2
E|----------------------------------------|----------------------------------------------|
B|----------------------------------------|----------------------------------------------|
G|----------------------------------------|--7---7----12--7------------------------------|
D|----5-------4-------2-------------------|--7---7----12--7------------------------------|   
A|----5-------4-------2-------------------|--5---5----10--5------------------------------|
E|----3-------2-------0-------------------|----------------------------------------------|
 |
 | Bass (Drop D)
G|----------------------------------------|----------------------------------------------|
D|----------------------------------------|----------------------------------------------|
A|----------------------------------------|------------------------0-1-2-----------------|
D|----5-------4-------2-------------------|--0--------5---0--2-3-4-------0~~~~~~~~~~~~~~-|
Not a thing   to      do                   We're all alright  We're all alright
BUT TALK      to      you

HELLO WISCONSON!



Добавлено: 10.10.2015
Вам также может быть интересно:
Другие материалы по этой песне:
  • Аккорды и текст

Страница создана 10.10.2015
http://primanota.ru/cheap-trick/in-street-chords.htm
Привет, Гость.
Предлагаем пройти революционный курс по гитаре.
Подарок от PrimaNota.Ru, забирай!