PrimaNota.ru - самый крупный в мире бесплатный архив песенных текстов, аккордов, табулатур и нот


Cheap Trick - Im The Man - аккорды и текст, видео

Регистрация Запомнить меня
Войти через:  Facebook Google Twitter Vk Yandex Mail.ru

Cheap Trick - Im The Man - аккорды и текст, видео

Печатать
Просмотров: 35
Авторы музыки: Rick Nielsen
Авторы текста: Rick Nielsen
Im The Man
Cheap Trick
-------------------------------------------------------------------------------
                           I'm The Man-Cheap Trick
-------------------------------------------------------------------------------
Tabbed by:Nick V.
E-mail:BlindTerry333@gmail.com

From the "Rock n' Rule" soundtrack.

Tuning:EADGBE


Intro:

   E    B5   D5   A5        E
e|-0------------------------0-----------------------------------------------|
B|-0---------3--------------0-----------------------------------------------|
G|-1---4-4---2---2-2--------1-----------------------------------------------|
D|-2---4-4---0---2-2--------2-----------------------------------------------|
A|-2---2-2-------0-0--------2-----------------------------------------------|
E|-0-------------------3b---0-----------------------------------------------|


Verse   D D E  x10    (listen for timing)  
e|---------------------------------------------------------------------------|
B|---------------------------------------------------------------------------|
G|-9\---7-7-9\---------------------------------------------------------------|
D|-9\---7-7-9\---------------------------------------------------------------|
A|---------------------------------------------------------------------------|
E|---------------------------------------------------------------------------|
Going down the road with a friend or two
Ain't nothing in the world, in the world I can't do
You thought you'd seen it all, you ain't seen nothing new

N.C.
Ain't nothing in the world, in the world I can't do



B5         A5       B5          A5
I can really rock, I'm a rock 'n' roller
B5                 A5        E
And I can't control myself


Verse:   D D E  x10   
e|---------------------------------------------------------------------------|
B|---------------------------------------------------------------------------|
G|-9\---7-7-9\---------------------------------------------------------------|
D|-9\---7-7-9\---------------------------------------------------------------|
A|---------------------------------------------------------------------------|
E|---------------------------------------------------------------------------|
Big city, big lights can see it up ahead
No one can stop me, I'm driving in your head
Make a name for myself and I'll be number one

    N.C.
And turn around and turn around and know that I'm the one



B5         A5       B5          A5
I can really rock, I'm a rock 'n' roller
B5                 A5        E
And I can't control myself

B5         A5       B5          A5
I can really rock, I'm a rock 'n' roller
B5                   A5        E
And I can't control myself


[Riff]
e|---------------------------------------------------------------------------|
B|---------------------------------------------------------------------------|
G|-2-0-2-0-------------------------------------------------------------------|
D|----------2b---------------------------------------------------------------|
A|---------------------------------------------------------------------------|
E|---------------------------------------------------------------------------|

B5             D5             A5    [Riff]
I'm the man in a rock 'n' roll band
B5                   D5              A5
I'm so crazy for you baby, yes, I'm the man
B5              D5             A5   [Riff]
I'm the man in a rock 'n' roll band
B5                  D5               A
I'm so crazy for you baby, yes, I'm the man, yes, I am

B5             D5             A5    [Riff]
I'm the man in a rock 'n' roll band
B5                   D5              A5
I'm so crazy for you baby, yes, I'm the man
B5              D5             A5   [Riff]
I'm the man in a rock 'n' roll band
B5                  D5               A
I'm so crazy for you baby, yes, I'm the man, yes, I am


E  B5 D5 A5 E

Questions, comments, insults...BlindTerry333
Добавлено: 10.10.2015
Другие материалы по этой песне:
  • Аккорды и текст

Страница создана 10.10.2015
http://primanota.ru/cheap-trick/im-man-chords.htm
Привет, Гость.
Предлагаем пройти революционный курс по гитаре.
Подарок от PrimaNota.Ru, забирай!