PrimaNota.ru - самый крупный в мире бесплатный архив песенных текстов, аккордов, табулатур и нот


Cheap Trick - If It Takes A Lifetime - таба, видео

Регистрация Запомнить меня
Войти через:  Facebook Google Twitter Vk Yandex Mail.ru

Cheap Trick - If It Takes A Lifetime - таба, видео

Печатать
Просмотров: 121
---------------------------------------------------------------------------
                            If It Takes A Lifetime-Cheap Trick
---------------------------------------------------------------------------
Tabbed by:Nick V.
E-mail:BlindTerry333@gmail.com

Tuning:EADGBE

Second track from 2006's "Rockford"

Intro:

e|--------------------------------------------------------------------------|
B|--------------------------------------------------------------------------|
G|--------7-6------------7---------7-6-------------7--------7-6-------------|
D|-7-5-7------7-5-7-5-7-----7-5-7-------7-5-7-5-7-----7-5-7-----7-5-7-------|
A|--------------------------------------------------------------------------|
E|--------------------------------------------------------------------------|



  E11/A     Amaj7      A       Bm     A/C#      D      Cadd9     Asus

e|-0--------0----------0--------2-------0-------2------3-------0-----------|
B|-0--------5----------5--------4-------2-------3------3-------3-----------|
G|-6--------6----------6--------3-------2-------2------0-------2-----------|
D|-7--------6----------7--------3-------2-------0------2-------2-----------|
A|-0--------0----------0--------2-------4-------0------3-------0-----------|
E|-x--------x----------x--------x-------x-------x------x-------x-----------|

Verse
 
E/11                           Amaj7
If you think my name, what gives you the right?
            A                  Bm        A/C#
Couldn't take the place be with you tonight, yeah 


E/11                        Amaj7
When I fall asleep and I dream all night 
            A
No matter where I go 
     Bm                        A/C#
Can't you see what you're doing to me?

D           Asus         Cadd9  A/C#
All I want to do, is just be with you 
D               Asus      Cadd9     A/C#
If it takes a lifetime , I'll wait for you 
D             Asus      Cadd9     A/C#
All I want to do is just be with you 
D           Asus
If it takes a lifetime 
D           Asus   Cadd9 A/C#            
I'll wait for you
D           Asus   Cadd9 A/C#            
I'll wait for you 


E/11                        Amaj7
Get closer, closer to me, got stories I can't speak 
 A                       Bm                               A/C#
Got secrets I can't keep, can't hide what you're doing to me

D           Asus         Cadd9  A/C#
All I want to do, is just be with you 
D               Asus      Cadd9     A/C#
If it takes a lifetime , I'll wait for you 
D             Asus      Cadd9     A/C#
All I want to do is just be with you 
D           Asus
If it takes a lifetime 
D           Asus   Cadd9 A/C#            
I'll wait for you
D           Asus   Cadd9 A/C#            
I'll wait for you  

E/11                           Amaj7
When I fall asleep and I dream all night
           A                                   Bm        
No matter where I go, can't you see in my eyes
                       A/C#
What you're doing to me? 
E/11               Amaj7
I sleep awake, all day all night
        A  
I dream of you, I dream of you
       Bm                  A/C# 
But I can't believe it's true 

D           Asus         Cadd9  A/C#
All I want to do, is just be with you 
D               Asus      Cadd9     A/C#
If it takes a lifetime , I'll wait for you 
D             Asus      Cadd9     A/C#
All I want to do is just be with you 
D           Asus
If it takes a lifetime 
D           Asus   Cadd9 A/C#            
I'll wait for you
D           Asus   Cadd9 A/C#            
I'll wait for you 

Questions, comments, or insults-BlindTerry333
Добавлено: 21.04.2014
Другие материалы по этой песне:
  • Аккорды и текст

Страница создана 21.04.2014
http://primanota.ru/cheap-trick/if-it-takes-a-lifetime-chords.htm
Привет, Гость.
Предлагаем пройти революционный курс по гитаре.
Подарок от PrimaNota.Ru, забирай!