PrimaNota.ru - самый крупный в мире бесплатный архив песенных текстов, аккордов, табулатур и нот


Cheap Trick - High Roller - аккорды и текст, таба, видео

Регистрация Запомнить меня
Войти через:  Facebook Google Twitter Vk Yandex Mail.ru

Cheap Trick - High Roller - аккорды и текст, таба, видео

Печатать
Просмотров: 138
High Roller
Cheap Trick
artist:  Cheap Trick
title:  High Roller
album:  Heaven Tonight
key:  A
tuning:  standard E A D G


intro

G-----------------------------------------------------------------------|
D-----------------------------------------------------------------------|
A--0-0-0-0-0-0-0-0-0-0-0-0-0-0-0-0-0-0-0-0-0-0-0-0-0-0-0-0-0------------|
E------------------------------------------------------------0-3-5-0----|

verse

G-----------------------------------------|
D-----------------------------------------|
A---5-5-5-3----5-5-5-3--------------------|   play it 5 times for the first verse
E------------0---------0-3-5-5------------|           3 times for the second verse

verse

chorus

G-----------------------------------------------------|
D-----------------------------------------------------|
A-----------------------------------------------------|
E--7-7-7-7-7-7-7-7-7-7-7-7/197-0-0-0-0-0-0-0-0-0-----|
   High_____________            Roller

   What I (A)buy is mine and I always get the things that I (B)choose
   My my (D)my such a high high (E)roller

third verse  (play riff four times)

chorus

post chorus

 (E)I know he's gone away and left you I'll take real good care of you


verse  (play riff 4 times)


bridge

(E)Is that you?  (D)I knew you'd be (D#) here tonight and (E)I'll
   make it all right (F#)
   (D)I'll take (E)real good care of you

G------------------------------------|
D-------0---0------------------------|
A-----0---0--------------------------|
E --------------5-3-2-0--------------|

(D)I'll tuck you (D#)in tonight and (E)I'll make it all (F#)right


post chorus

verse riff to end

Jump in my love car don't have to go very far
Just far enough to show you a thing or two

I can really swing the best of everything
And I want to have a thing with you

High roller what I buy is mine and I always get the things that I choose
My my my such a high roller

I'm in the mood for love You're all I'm thinking of
I'll make you feel all right when we're alone

High roller what I buy is mine and I always get the things that I choose
My my my such a high roller

I know he's gone away and left you I'll take real good care of you

I can really swing the best of everything And I want to have a thing with you

Is that you?  I knew you'd be here tonight and I'll make it all right
I'll tkae real good care of you
I'll tuck you in tonight and I'll make it all right

I know he's gone away and left you I'll take real good care of you


comments, questions to senomar@bach.udel.edu
         -I'm here, I'm queer, I play 5-string bass
Добавлено: 26.06.2012
Другие материалы по этой песне:
  • Аккорды и текст

Страница создана 12.04.2012
http://primanota.ru/cheap-trick/high-roller-chords.htm
Привет, Гость.
Предлагаем пройти революционный курс по гитаре.
Подарок от PrimaNota.Ru, забирай!