PrimaNota.ru - самый крупный в мире бесплатный архив песенных текстов, аккордов, табулатур и нот


Cheap Trick - High Priest Of Rhythmic Noise - текст песни, таба, видео

Регистрация Запомнить меня
Войти через:  Facebook Google Twitter Vk Yandex Mail.ru

Cheap Trick - High Priest Of Rhythmic Noise - текст песни, таба, видео

Печатать
Просмотров: 115
Song name: High Priest of Rhythmic Noise
Band: Cheap Trick
Album: All Shook Up
 
Transcribed by MikiMixx. mikimixx@serbianna.com
 
Notes: Normal tuning. Slight Flanger
 

Intro: 
e|-------------------------------10----10----10----10---|
B|------------------------12-------8-----8-----8-----8--|
G|---7-6---10-9---13-12-----12--------------------------|
D|------------------------------------------------------|
A|------------------------------------------------------|
E|------------------------------------------------------|
 
   Singing Starts
e|-------------2---4------------------------------------|
B|-------------3---6------------------------------------|
G|-7-----------3---5------------------------------------|
D|-7-0-0-0-0-0-0-0-0------------------------------------|
A|-5----------------------------------------------------|
E|-5----------------------------------------------------|
 
Chorus: Itâ^À^Ùs such a pity...
e|--------------------------3---------------------------|
B|--------------------------2---------------------------|
G|-2---5----2---5----2---5--3---------------------------|
D|-2-5-5----2-3-5----2-5-5--0---------------------------|
A|-0-5-3----0-3-3----0-5-3------------------------------|
E|---3--------1-3------3---------------------------------|
 
Verse: Donâ^À^Ùt give up, get out, get down
e|------------------------------------------------------|
B|------------------------------------------------------|
G|--7-2----5--------------------------------------------|
D|--7-2--3-5--------------------------------------------|
A|--5-0--3-3--------------------------------------------|
E|--5----1-3--------------------------------------------|
 
Repeat all above.
Happy playings!

     
Добавлено: 08.07.2013
Другие материалы по этой песне:
  • Аккорды и текст

Страница создана 08.07.2013
http://primanota.ru/cheap-trick/high-priest-of-rhythmic-noise-chords.htm
Привет, Гость.
Предлагаем пройти революционный курс по гитаре.
Подарок от PrimaNota.Ru, забирай!