PrimaNota.ru - самый крупный в мире бесплатный архив песенных текстов, аккордов, табулатур и нот


Cheap Trick - Downed - аккорды и текст, видео

Регистрация Запомнить меня
Войти через:  Facebook Google Twitter Vk Yandex Mail.ru

Cheap Trick - Downed - аккорды и текст, видео

Печатать
Просмотров: 172
Downed
Cheap Trick
Artist: Cheap Trick
Title: Downed
Author: Rick Nielsen
Album: In Color/Budokan II/The Complete Budokan Concert

(Rick Nielsen)

tab by Chris Clark (chris@drclueful.com)

I always thought this song could be The Great Lost Single from the Who's 
"Quadrophenia," but the live version on "The Complete Budokan Concert" 
channels Neil Young as well (imagine a Crazy Horse version of "The Needle 
and the Damage Done"). Yet another twisted Rick Nielsen power-pop manifesto 
about sex, drugs and suicide. Sounds great on 12-string, too! PS the 
complete lyrics to "Downed" and other fine selections from the Cheap Trick 
catalog can be found at the band's official web site (www.cheaptrick.com).

C9
E  |---|---|-x-|-
B  |---|---|-x-|-
G o|---|---|---|-
D  |---|-x-|---|-
A  |---|---|-x-|-
E x|---|---|---|-

G (B bass)
E  |---|---|-x-|-
B  |---|---|-x-|-
G o|---|---|---|-
D o|---|---|---|-
A  |---|-x-|---|-
E x|---|---|---|-

Gm (Bb bass)
E  |---|---|-x-|-
B  |---|---|-x-|-
G o|---|---|---|-
D o|---|---|---|-
A  |-x-|---|---|-
E x|---|---|---|-

Em7 (just pull the low C off the C9)
E  |---|---|-x-|-
B  |---|---|-x-|-
G o|---|---|---|-
D  |---|-x-|---|-
A x|---|---|---|-
E x|---|---|---|-

(intro - picked)

D   C9  Gm(Bb bass)  C9
D   C9  G(B bass)  Gm (Bb bass)

(chorus)

D   C9  Gm(Bb bass)  C9
Downed, downed...

D   C9  G(B bass)  Gm (Bb bass)
'Round, 'round...

(verse part 1)

D  C9  G
A  G   D Dsus4 D

D	     C9	      G
I'm gonna live...
A   	      G           D Dsus4 D
Way down under...
D  C9  G
A  G   D Dsus4 D

(verse part 2)

A     G        D Dsus4 D
Ooh, I got a mind...
A      G       D Dsus4 D
A      G       D Dsus4 D


D	     C9	       G
Rainbow's crawling...
A   	     G         D Dsus4 D
But I've been lucky...
D  C9  G
A  G   D Dsus4 D


A     G         D Dsus4 D
Ooh, you think of...
A     G         D Dsus4 D
A     G         D Dsus4 D

A              G	      Em7   C9   Em7   C9
It's such a strange strain...

Solo - Em
(3x)

E |--------------------------------7--7--------|
B |--------------------------------8--8--------|
G |--------------------------------7--7--------|
D |--------------------------------9--9--------|
A |--------------------------------7--7--------|
E |---0---3-0--3-5---0-3-0--3-5----0--0--------|

E |----------------------|
B |----------------------|
G |----------------------|
D |----------------------|
A |---------0-2-3-4------|
E |---0-2-3--------------|

(chorus: "Downed, downed...")

(verse: "Too many people...")

(chorus, solo and fade)

     
Добавлено: 01.06.2013
Другие материалы по этой песне:
  • Аккорды и текст

Страница создана 26.05.2012
http://primanota.ru/cheap-trick/downed-chords.htm
Привет, Гость.
Предлагаем пройти революционный курс по гитаре.
Подарок от PrimaNota.Ru, забирай!