PrimaNota.ru - самый крупный в мире бесплатный архив песенных текстов, аккордов, табулатур и нот


Cheap Trick - Can't Stop it But I'm Gonna Try - текст песни, таба, видео

Регистрация Запомнить меня
Войти через:  Facebook Google Twitter Vk Yandex Mail.ru

Cheap Trick - Can't Stop it But I'm Gonna Try - текст песни, таба, видео

Печатать
Просмотров: 254
Can't Stop It But I'm Gonna Try
Cheap Trick
Written by Rick Nielsen
Album: All Shook Up


Intro:
E / C / D / E
C / A / B / E


Intro Solo:
E--------------------------------------------------------------------
B--9b(11)-(11)r9--7---7--9b(11)--5----7b(9)-(9)r7--5---5--7b(9)--5---
G-------------------9--------------------------------7---------------
D--------------------------------------------------------------------
A--------------------------------------------------------------------
E--------------------------------------------------------------------

E--------------------------------------------------------------------
B--9b(11)-(11)r9--7---7--9b(11)--5----7b(9)-(9)r7--5---5~~-----------
G-------------------9--------------------------------7---------------
D--------------------------------------------------------------------
A--------------------------------------------------------------------
E--------------------------------------------------------------------

D
It's been a long time, baby
C
It's been a long time comin', I don't like it
A
It's been on my mind, baby
G
It's not the same anymore
E
Let's face it, we've changed, yeah yeah


Verse chords:
C5    Bb5 G5
E------------------------------------------
B------------------------------------------
G--5---5--3-----------3--5--5--5--3-------- etc.
D--5---5--3--5--5--5--3--5--5--5--3--5-----
A--3---3--1--5--5--5--1--3--3--3--1--5-----
E------------3--3--3-----------------3-----

Verse:
Don't stand there laughin'
'Cause I'm here cryin'
Don't have no pity, baby
'Cause my sun's never shinin'

And don't think I ever think about you with another man
And don't think I care about you, honey
You just don't understand
That's why I say


Chorus: (Play intro)
Can't stop it but I'm gonna try
Can't stop it but I'm gonna try
Can't stop it but I'm gonna try
Can't stop it but I'm gonna try
Can't stop lovin' you baby
Can't stop it but I'm gonna try


It's been a long time, baby
It's been a long time comin', I don't like it
It's been on my mind, baby
It's not the same anymore
Let's face it, we've changed, yeah yeah


Verse:
Here comes that feelin'
That feelin' never stops
From the first time that I met you
Till the last time that we talked

And some days I don't think I'll make it through
I'd feel better if you felt it too
But don't have no pity, pity baby
You just don't understand
That's why I say


CHORUS


It's been a long time, baby
It's been a long time, baby
I don't like it
It's been on my mind, baby
It's not the same anymore
Let's face it, we've changed, yeah yeah
Добавлено: 04.04.2012
Другие материалы по этой песне:
  • Аккорды и текст

Страница создана 24.03.2012
http://primanota.ru/cheap-trick/cant-stop-it-but-im-gonna-try-chords.htm
Привет, Гость.
Предлагаем пройти революционный курс по гитаре.
Подарок от PrimaNota.Ru, забирай!