PrimaNota.ru - самый крупный в мире бесплатный архив песенных текстов, аккордов, табулатур и нот


Cheap Sex - Worst Enemy - текст песни, таба, бас-таба, видео

Регистрация Запомнить меня
Войти через:  Facebook Google Twitter Vk Yandex Mail.ru

Cheap Sex - Worst Enemy - текст песни, таба, бас-таба, видео

Печатать
Просмотров: 175
THIS IS THE FIRST WORST ENEMY GUITAR TAB MADE. IM SORRY IF THERE ARE A FEW MESS UPS BUT HEY
I TRIED MY HARDEST!

Intro
e|-------------------------------------------------------------------|
B|-------------------------------------------------------------------|
G|-5-5-5-5--7--------------------------------------------------------|
D|-5-5-5-5--7-------2---------2--------------------------------------|
A|-3-3-3-3--5-------2---------2--------------------------------------|
E|------------------0-3-3-2-0-0-3-3-2-0------------------------------|
     * * *

Solo
e|--------------------------------------------------------------|
B|--------------------------------------------------------------|
G|---------7-(9)-7----------------------------------------------|
D|-----7-9--------7-9-797979-5-5-4~-0---------------------------|
A|-7-9----------------------------------------------------------|
E|--------------------------------------------------------------|


e|-12---12------16-14-------------------------------------------|
B|-(14)-(14)----------16-14-(16)-14-----------------------------|
G|----------------------------------16--141214121412-(14)-14-12-|
D|--------------------------------------------------------------|
A|--------------------------------------------------------------|
E|--------------------------------------------------------------|

e|--------------------------------------------------------------|
B|--------------------------------------------------------------|
G|---------7-(9)-7----------------------------------------------|
D|-----7-9--------7-9-797979-5-5-4~-0---------------------------|
A|-7-9----------------------------------------------------------|
E|--------------------------------------------------------------|

e|-12---12---12-------------------------------------------------|
B|-(14)-(14)-(14)-----------------------------------------------|
G|--------------------------------------------------------------|
D|--------------------------------------------------------------|
A|--------------------------------------------------------------|
E|--------------------------------------------------------------|

e|---0-------------------------------------------------------------|
B|---0-------------------------------------------------------------|
G|-2-2-------------------------------------------------------------|
D|-2-2-------------------------------------------------------------|
A|---0-------------------------------------------------------------|
E|---0-------------------------------------------------------------|
Its Really Messed up but whatever.

Fill
e|-----------------------------------------------------------------|
B|-----------------------------------------------------------------|
G|--12-12-12-12-12-11-11-11-9--------------------------------------|
D|--x--x--x--x--x--x--x--x--x--------------------------------------|X2
A|--10-10-10-10-10-9--9--9--7--------------------------------------|
E|-----------------------------------------------------------------|


e|-----------------------------------------|
B|-----------------------------------------|
G|--12-12-12-12-12-11-11-11-9-7-9----------|
D|--x--x--x--x--x--x--x--x--x-x-x----------|
A|--10-10-10-10-10-9--9--9--7-5-7----------|
E|-----------------------------------------|

e|-------------------------------|
B|-------------------------------|
G|--12-12-12-12-12-11-11-11-14---|
D|--x--x--x--x--x--x--x--x--x----| X2
A|--10-10-10-10-10-9--9--9--12---|
E|-------------------------------|


e|-----------------------------------------|
B|-----------------------------------------|
G|--12-12-12-12-12-11-11-11-9-7-9----------|
D|--x--x--x--x--x--x--x--x--x-x-x----------|
A|--10-10-10-10-10-9--9--9--7-5-7----------|
E|-----------------------------------------|

Verse 1
e|-------------------------------------------------------------|
B|-------------------------------------------------------------|
G|-----------------------------5-5-5-5-5-5--7-7-7-5------------|
D|-2-2-2-2-2-2-2--5-5-5-5-5-5--5-5-5-5-5-5--7-7-7-5------------|
A|-2-2-2-2-2-2-2--5-5-5-5-5-5--3-3-3-3-3-3--5-5-5-3------------|
E|-0-0-0-0-0-0-0--3-3-3-3-3-3----------------------------------|
     * * * * * *    * * * * *    * * * * *

Fill
e|-----------------------------------------|
B|-----------------------------------------|
G|--12-12-12-12-12-11-11-11-9-7-9-7-9------|
D|--x--x--x--x--x--x--x--x--x-x-x-x-x------|
A|--10-10-10-10-10-9--9--9--7-5-7-5-7------|
E|-----------------------------------------|

Mini Solo
e|--------------------------|
B|--------------------------|
G|---2-5---2-5---4-7---4-7--|
D|-3-----3-----5-----5------|
A|--------------------------|
E|--------------------------|

Verse 2
e|-----------------------------------------------------------|
B|-----------------------------------------------------------|
G|-5-5-5-5-4-4-4-4---------9-9-9-7-7-7-5-5-5-5-4-4-4-4-------|
D|-5-5-5-5-4-4-4-4-5-5-5-5-9-9-9-7-7-7-5-5-5-5-4-4-4-4-5-----|
A|-3-3-3-3-2-2-2-2-5-5-5-5-7-7-7-5-5-5-3-3-3-3-2-2-2-2-5-----|
E|-----------------3-3-3-3-----------------------------3-----|

Solo 2

e|--------------------------------------------------|
B|-------14-------14-------14-----------------------|
G|-12-14----12-14----12-14---(14)-12----------12-14-|
D|-----------------------------------14-12-14-------|
A|--------------------------------------------------|
E|--------------------------------------------------|
This part is for you to figure out on your own.  i gave you a hint.


Verse 1
e|-------------------------------------------------------------|
B|-------------------------------------------------------------|
G|-----------------------------5-5-5-5-5-5--7-7-7-5------------|
D|-2-2-2-2-2-2-2--5-5-5-5-5-5--5-5-5-5-5-5--7-7-7-5------------|
A|-2-2-2-2-2-2-2--5-5-5-5-5-5--3-3-3-3-3-3--5-5-5-3------------|
E|-0-0-0-0-0-0-0--3-3-3-3-3-3----------------------------------|
     * * * * * *    * * * * *    * * * * *

Fill
e|-----------------------------------------|
B|-----------------------------------------|
G|--12-12-12-12-12-11-11-11-9-7-9-7-9------|
D|--x--x--x--x--x--x--x--x--x-x-x-x-x------|
A|--10-10-10-10-10-9--9--9--7-5-7-5-7------|
E|-----------------------------------------|


Mini Solo
e|--------------------------|
B|--------------------------|
G|---2-5---2-5---4-7---4-7--|
D|-3-----3-----5-----5------|
A|--------------------------|
E|--------------------------|


e|---------------------------------------------------------|
B|---------------------------------------------------------|
G|-------5-5-5-------7-7-7-------5-5-5---------------------|
D|-0-0-0-5-5-5-0-0-0-7-7-7-0-0-0-5-5-5-0-0-0-0-0-0-0-0-----| X2
A|-0-0-0-3-3-3-0-0-0-5-5-5-0-0-0-3-3-3-0-0-0-0-0-0-0-0-----|
E|-0-0-0-------0-0-0-------0-0-0-------0-0-0-0-0-0-0-0-----|
   * * *       * * *       * * *       * * * * * * * *


e|-------------------5---------------------6-------6---|
B|------------------5-5--------------5-6-5---5-6-5-----|
G|-------5-5-5----------------5-5-5--------------------|
D|-0-0-0-------0-0-0----0-0-0--------------------------|
A|-0-0-0-------0-0-0----0-0-0--------------------------|
E|-0-0-0-------0-0-0----0-0-0--------------------------|
THIS IS ALL RIGHT UNTILL             HERE!


HAVE GUN WITH THIS.  THANX!
Добавлено: 11.04.2012
Другие материалы по этой песне:
  • Аккорды и текст

Страница создана 27.03.2012
http://primanota.ru/cheap-sex/worst-enemy-chords.htm
Привет, Гость.
Предлагаем пройти революционный курс по гитаре.
Подарок от PrimaNota.Ru, забирай!