PrimaNota.ru - самый крупный в мире бесплатный архив песенных текстов, аккордов, табулатур и нот


Cheap Sex - Take A Chance - текст песни, таба, бас-таба, видео

Регистрация Запомнить меня
Войти через:  Facebook Google Twitter Vk Yandex Mail.ru

Cheap Sex - Take A Chance - текст песни, таба, бас-таба, видео

Печатать
Просмотров: 204
Intro/Chorus
e|------------------------------------------------|
B|------------------------------------------------|
G|------------------------------------------------|
D|------------------9-99-7-7-5-5555555------------|
A|-5-55555555555555-7-77-5-5-3-3333333------------|
E|-3-33333333333333-------------------------------|

e|------------------------------------------------|
B|------------------------------------------------|
G|------------------------------------------------|
D|---------------------------5-555555-------------|
A|-5-55555555555555-7-777777-3-333333-------------|
E|-3-33333333333333-5-555555----------------------|

SOLO:
not perfect but work with it
just a 15 minute sketch of it
as close as i could get it

e|-----33---33---333333--6p3----------------------|
B|-----33---33---333333-----6-6p3--3^-------------|
G|---5^---5^---5^----------------5---5p3----------|
D|---------------------------------------5--------|
A|------------------------------------------------|
E|------------------------------------------------|

e|--------------------------------------3h6p3---6-|
B|---------3h6p3--3^-----3h6p3---3h6p3--------6-6-|
G|-----3h5---------------------5-------5----------|
D|----5-------------------------------------------|
A|------------------------------------------------|
E|------------------------------------------------|

Verse:
e|------------------------------------------------|
B|------------------------------------------------|
G|------------------------------------------------|
D|--------------------5-5-555---------------------|
A|---5-55555555555555-3-3-333-7-777777------------|
E|---3-33333333333333---------5-555555------------|
Добавлено: 15.07.2012
Вам также может быть интересно:
Другие материалы по этой песне:
  • Аккорды и текст

Страница создана 08.04.2012
http://primanota.ru/cheap-sex/take-a-chance-chords.htm
Привет, Гость.
Предлагаем пройти революционный курс по гитаре.
Подарок от PrimaNota.Ru, забирай!