PrimaNota.ru - самый крупный в мире бесплатный архив песенных текстов, аккордов, табулатур и нот


Cheap Sex - Out On Your Own - текст песни, таба, видео

Регистрация Запомнить меня
Войти через:  Facebook Google Twitter Vk Yandex Mail.ru

Cheap Sex - Out On Your Own - текст песни, таба, видео

Печатать
Просмотров: 156
 Tabbed by: punktilldeath15
 Band: Cheap Sex
 Album: Launch off to War
 Song: Out on Your own
 

 Listen to song for exact sound and tempo.

                           RYTHUM GUITAR



Intro
e|----------------------------------------| 
B|----------------------------------------| 
G|--7~------------------------------------| 
D|--7~-------4~-------5~-------9-----7----| 
A|--5~-------4~-------5~-------9-----7----| 
E|-----------2--------3~-------7-----5----|x2

Verse
e|----------------------------------------------| 
B|----------------------------------------------| 
G|--7777----------------------------------------| 
D|--7777-------4444-------5555-------9-----7----| 
A|--5555-------4444-------5555-------9-----7----| 
E|-------------2222-------3333-------7-----5----|x6 

Chorus
e|--------------------------------------------------| 
B|--------------------------------------------------| 
G|--77--77------------------------------------------| 
D|--77--77-------44--44-------5555-------9-----7----| 
A|--55--55-------44--44-------5555-------9-----7----| 
E|---------------22--22-------3333-------7-----5----|x4

Hold last note in Chorus to go into the outro.

Outro
e|-------------------------------------------------------------| 
B|-------------------------------------------------------------| 
G|--77--77--77--77--77--77-------------------------------------| 
D|--77--77--77--77--77--77------4444-------5555----------------| 
A|--55--55--55--55--55--55------4444-------5555----------------| 
E|------------------------------2222-------3333----------------|x4
      **  **  **  **  **  

*= lightly pick your left hand off to mute the note quickly then play again.
listen to the song for exact idea.

End on
e|------|
B|------|
G|------|
D|--5~--|
A|--5~--|
E|--3~--|

Intro
Verse
Chorus
Verse
Chorus
Outro
Добавлено: 03.07.2012
Другие материалы по этой песне:
  • Аккорды и текст

Страница создана 17.04.2012
http://primanota.ru/cheap-sex/out-on-your-own-chords.htm
Привет, Гость.
Предлагаем пройти революционный курс по гитаре.
Подарок от PrimaNota.Ru, забирай!