PrimaNota.ru - самый крупный в мире бесплатный архив песенных текстов, аккордов, табулатур и нот


Cheap Sex - Back Stabber - текст песни, таба, видео

Регистрация Запомнить меня
Войти через:  Facebook Google Twitter Vk Yandex Mail.ru

Cheap Sex - Back Stabber - текст песни, таба, видео

Печатать
Просмотров: 217
Cheap Sex - Back Stabber 

NOTES: rb = Release bend to original note

There are some chords that you play on the 2nd time of repeating the chorus that I
couldn't quite figure out. If you just repeat what I wrote here for the chorus you
shouldn't be able to tell the difference. 

Intro
E|--------------------------------------------|
B|--------------------------------------------|
G|---------------------------------7-7-9-7----| PLAY SEVEN TIMES
D|--9-9999129-799999129—799999129--7-7-9-7----| 
A|--9-9999129-799999129-799999129--5-5-7-5----|
E|--7-7777107-577777107-577777107-------------| 

Chorus:
E|--------------------------------------------|
B|--------------------------------------------|
G|--9-7-9--9-7-9--9-7-9--11111111111111-------| PLAY TWO TIMES
D|--9-7-9--9-7-9--9-7-9--11111111111111-------|
A|--7—5-7--7-5-7--7-5-7--9-9-9-9-9-9-9--------|
E|--------------------------------------------|

E|--------------------------------------------|
B|--------------------------------------------|
G|---------------------------------7-7-9-7----| PLAY FOUR TIMES
D|--9-9999129-799999129—799999129--7-7-9-7----| 
A|--9-9999129-799999129-799999129--5-5-7-5----|
E|--7-7777107-577777107-577777107-------------|

E|--------------------------------------------|
B|--------------------------------------------|
G|--9-7-9--9-7-9--9-7-9--11111111111111-------| PLAY TWO TIMES
D|--9-7-9--9-7-9--9-7-9--11111111111111-------| 
A|--7—5-7--7-5-7--7-5-7--9-9-9-9-9-9-9--------|
E|--------------------------------------------|

Bridge: 
E|----------------------------------------|
B|----------------------------------------|
G|---9b11----------—9b11---------11rb9~---|
D|----------------------------------------|
A|----------------------------------------|
E|----------------------------------------|

Guitar II Bridge:
E|----------------------------------------|          
B|----------------------------------------|
G|--------7-7-9-7----------7-7-9-7--------|
D|--------7-7-9-7-9--------7-7-9-7-9------|
A|--------5-5-7-5-9--------5-5-7-5-9------|
E|----------------7----------------7------|


E|--------------------------------------------|
B|--------------------------------------------|
G|---------------------------------7-7-9-7----| PLAY FOUR TIMES
D|--9-9999129-799999129—799999129--7-7-9-7----|
A|--9-9999129-799999129-799999129--5-5-7-5----|
E|--7-7777107-577777107-577777107-------------|


E|--------------------------------------------|
B|--------------------------------------------|
G|--9-7-9--9-7-9--9-7-9--11111111111111-------| PLAY TWO TIMES
D|--9-7-9--9-7-9--9-7-9--11111111111111-------| 
A|--7—5-7--7-5-7--7-5-7--9-9-9-9-9-9-9--------|
E|--------------------------------------------|

E|---------|
B|-End on:-|
G|---------|
D|--9------|
A|--9------|
E|--7------|
Добавлено: 12.06.2012
Другие материалы по этой песне:
  • Аккорды и текст

Страница создана 12.06.2012
http://primanota.ru/cheap-sex/back-stabber-chords.htm
Привет, Гость.
Предлагаем пройти революционный курс по гитаре.
Подарок от PrimaNota.Ru, забирай!