PrimaNota.ru - самый крупный в мире бесплатный архив песенных текстов, аккордов, табулатур и нот


Cheap Dinosaurs - Hot Plate - бас-таба, видео

Регистрация Запомнить меня
Войти через:  Facebook Google Twitter Vk Yandex Mail.ru

Cheap Dinosaurs - Hot Plate - бас-таба, видео

Печатать
Просмотров: 89
-------------------------------------------------------------------------------
                           Hot Plate - Cheap Dinosaurs
-------------------------------------------------------------------------------
Tabbed by: ClydeLee
E-mail: mqsand@gmail.com

Tuning: Standard
Key: Ab Minor?
Tempo: ~145bpm

Cool chip-tune band with heavy jazz influence, the bass and guitar line are very similar, so i just decided to
tab out the bass line, its so catchy!!

Main line

   1  +  2  +  3  +  4  +  1  +  2  +  3  +  4  +  1  +  2  +  3  +  4  +  1  +  2  +  3  +  4  +
G|----------------------------------------------------------------8--------------------------------|
D|-6-----------6-----6-----------9-----8--------11----9--8--------------------------8--9--11-8-----|
A|----6-----------------------------------9--------------------6-----6--8--9--------------------9--|
E|-------4--------------4--7-----------------11-------------------------------6--------------------|

   1  +  2  +  3  +  4  +  1  +  2  +  3  +  4  +  1  +  2  +  3  +  4  +  1  +  2  +  3  +  4  +
G|----------------------------------------------------------------8--------------------------------|
D|-6-----------6-----6-----------9-----8--------11----9--8--------------------------8--9--11-8-----|
A|----6-----------------------------------9--------------------6-----6--8--9--------------------9--|
E|-------4--------------4--7-----------------11-------------------------------6--------------------|


Transition line into the "B part"         Part B   *weird off beat rhythm stuff going on (basically just 
with the nice jazzy chords                Start    repeat the same pattern) 
                                       
   3  +  4  +  1  +  2  +  3  +  4  +  1  +  2  +  3  +  4  +  1  +  2  +  3  +  4  +  1  +  2  +  3  +  4  +
G|----8-------------------------------------------------------------------------------------------------------|
D|----------------------8--9--11-8--------------------------------------8--11-8-------------------------------|
A|-6-----6--8--9--------------------9-----9-----9--9-----9-----9--9--------------9-----9-----9--9-----9-----9-|
E|----------------6--------------------11-------------------------------------------11------------------------|


   1  +  2  +  3  +  4  +  1  +  2  +  3  +  4  +  1  +  2  +  3  +  4  +  1  +  2  +  3  +  4  +
G|------------------------------------------------------------------------------------------------|
D|-------8--11-8--------------------------------------8--11-9--8----------------------------------|
A|-9--------------9-----8-----8--8-----8-----8--8-----------------9--7-----7--7-----7-----7--7----|
E|-------------------11---------------------------------------------------------------------------|


   1  +  2  +  3  +  4  +  1  +  2  +  3  +  4  +  1  +  2  +  3  +  4  +  1  +  2  +  3  +  4  +
G|------------------------------------------------------------------------------------------------|
D|-9--9--9--11-------------------------------------8--11-8--------------------------------------8-|
A|-------------------9-----9--9-----9-----9--9--------------9-----9-----9--9-----9-----9---9------|
E|-------------------------------------------------------------11---------------------------------|

                                                                           
   1  +  2  +  3  +  4  +  1  +  2  +  3  +  4  +  1  +  2  +  3  +  4  +  1  +  2  +  3  +  4  +
G|------------------------------------------------------------------------------------------------|
D|-11-8--------------------------------------8--11-9--8-------------------------------------------|
A|-------9-----8-----8--8-----8-----8--8-----------------9--7-----7--7-----7-----7--7-------------|
E|----------11------------------------------------------------------------------------------------|

The beat gets a little funky towards the end of the jazzy chords part but just play it by ear as usual, enjoy 
this interesting and unique band!!
| /  slide up
| \  slide down
| h  hammer-on
| p  pull-off
| ~  vibrato
| +  harmonic
| x  Mute note
===============================================================================
Добавлено: 04.06.2016
Другие материалы по этой песне:
  • Аккорды и текст

Страница создана 04.06.2016
http://primanota.ru/cheap-dinosaurs/hot-plate-chords.htm
Привет, Гость.
Предлагаем пройти революционный курс по гитаре.
Подарок от PrimaNota.Ru, забирай!