PrimaNota.ru - самый крупный в мире бесплатный архив песенных текстов, аккордов, табулатур и нот


Chavela Vargas - Rogaciano El Huapanguero - аккорды и текст, видео

Регистрация Запомнить меня
Войти через:  Facebook Google Twitter Vk Yandex Mail.ru

Chavela Vargas - Rogaciano El Huapanguero - аккорды и текст, видео

Печатать
Просмотров: 76
Rogaciano El Huapanguero
Chavela Vargas
By:Daniel Velarde
Araró Mich. Mex.


INTRO:

 Gm     Gm               D7
     e|-10----10----10-|-8----8----8-|
     b|----11----11----|---10---10---|
     g|----------------|-------------|
     D|----------------|-------------|
     A|----------------|-------------|
     E|----------------|-------------|

   Gm          D
e|-6---6---6-|-5------|
b|---8---8---|---7----|
g|-----------|-----7b-|
D|-----------|--------|
A|-----------|--------|
E|-----------|--------|

   Gm               D7
e|-10----11-10----|-8----8----8-|
b|----11-------11-|---10---10---|
g|----------------|-------------|
D|----------------|-------------|
A|----------------|-------------|
E|----------------|-------------|

   Gm          D                Gm
e|-6---6---6-|-5--------------|----|
b|---8---8---|-7--------------|----|
g|-----------|-7--------------|----|
D|-----------|----------------|----|
A|-----------|----5-6-5-3-----|----|
E|-----------|------------6-5-|-3--|

Am
La Huasteca está de luto
       E7           Am
se murió su huapanguero,
        E7             Am
Ya no se oye aquel falsete
          E7           Am
que es el alma del trovero.

Am
Rogaciano se llamaba
      E7             Am
Rogaciano el Huapanguero,
      E7           Am
Eran sones de la sierra
         E7           Am
las canciones del trovero.

       G           C
La azucena y la Cecilia
          G             C
lloran, lloran sin consuelo
 E7            Am
Malagueña Salerosa,
 E7               Am
Ya se fue tu pregonero.

Am
El cañal está en su punto
        E7          Am
hoy comienza la molienda,
       E7             Am
El trapiche está de duelo
      E7            Am
y suspira en cada vuelta.

Am
Por los verdes cafetales
       E7          Am
Mas allá de aquel potrero,
           E7          Am
Hay quién dice que de noche
       E7            Am
se aparece el huapanguero.

       G           C
La azucena y la Cecilia
          G             C
lloran, lloran sin consuelo
 E7            Am
Malagueña Salerosa,
 E7               Am
Ya se fue tu pregonero.
Добавлено: 21.11.2015
Другие материалы по этой песне:
  • Аккорды и текст

Страница создана 21.11.2015
http://primanota.ru/chavela-vargas/rogaciano-el-huapanguero-chords.htm
Привет, Гость.
Предлагаем пройти революционный курс по гитаре.
Подарок от PrimaNota.Ru, забирай!