PrimaNota.ru - самый крупный в мире бесплатный архив песенных текстов, аккордов, табулатур и нот


Chatmonchy - Somaru Yo - бас-таба, видео

Регистрация Запомнить меня
Войти через:  Facebook Google Twitter Vk Yandex Mail.ru

Chatmonchy - Somaru Yo - бас-таба, видео

Печатать
Просмотров: 60
SONG NAME - Somaru yo
Band Name - Chatmonchy
Tuning: Standard

/  slide up
\  slide down
h  hammer-on
p  pull-off
~  vibrato
+  harmonic
x  Mute note

Intro
G|-------------------------------------------------------|
D|--8-8-10-10-7-7-10-10--------10-10-----10-10\----------|
A|-----------------------10-10-------8-8-----------------|
E|-------------------------------------------------------|

0:06
G|----------|----------|----------|---------------------------|
D|------7---|----------|------3---|---------------------------|
A|--5-5---5-|------7---|--1-1---1-|------0-3------------------|
E|----------|--5-5---5-|----------|--1-1----------------------| x3

Repeat intro

0:32
G|----------|----------|----------|---------------------------|
D|------7---|----------|------3---|---------------------------|
A|--5-5---5-|------7---|--1-1---1-|------0-3------------------|
E|----------|--5-5---5-|----------|--1-1----------------------| x2


G|-------------------------------------|--------------------------|
D|--12--12--12--12--14--14---14-14-14--|---------15---------------|
A|-------------------------------------|-----13------13\----------|
E|-------------------------------------|--------------------------|

G|--------------------------|-------------------------------------|
D|--------------------------|-------------------------------------|
A|--5--5--5--5--7--7--7--7--|----8--8--8--------------------------|
E|--------------------------|-------------------------------------|

0:58
Chorus
G|---------------------------------------------------------------|
D|---------------------------------------------------------------|
A|----------------------5-5-5-5----------------------------------|
E|--6-6-6-6-5--6-5-5-5----------8--8-8-8-8---6-6-6-6-8--8-8-8-8--|

G|---------------------------------------------------------------|
D|---------------------------------------------------------------|
A|--8-8-8-8-6--6-6-6-6----------------------5-5-5-5--------------|
E|----------------------6-6-6-6-8--6-5-5-5----------8--8-8-8-8---|

G|------------------------------------------|
D|------------------------------------------|
A|----------------------8-8-8-8-6--6-6-6-6--|
E|--6-6-6-6-8--8-8-8-8----------------------|
End Chorus

1:23
G|-----------|-----------|----------|------------|
D|------7----|-----------|----3-3---|------------|
A|--5-5---5--|--------3--|--1-----1-|------0-3---|
E|-----------|--5-3-5----|----------|--1-1-------|

G|------5-7--|-----------|----2/3-2---|-------------|
D|----7------|-----------|---------3--|-------------|
A|--5--------|--------3--|--1---------|-----3-4-----|
E|-----------|--5-3-5----|------------|--1-1--------|

G|-----------|-----------|----------|------------|
D|------7----|-----------|-----3----|------------|
A|--5-5---5--|------7----|--1-1---1-|-------0-3--|
E|-----------|--5-5---5--|----------|--1-1-------|

1:43
G|------------------------------|---------------------------|--------/15---|
D|----------------3-3-3---------|--12-12-12-12-14-14-14-14--|-----15-------|
A|--1-1-1--3-3-3--5-5-5--7-7-7--|---------------------------|--13----------|
E|------------------------------|---------------------------|--------------|

G|-------------------|--12--14--17-|
D|-------------------|-------------|
A|--5-5-5-5-7-7-7-7--|-------------|
E|-------------------|-------------|

2:01
Play Chorus x1


2:27
G|--15-15-15-15-14--14-14-14-14--|---------------------------|
D|-------------------------------|---------------------------|
A|-------------------------------|--5-5-5-5------------------|
E|-------------------------------|----------8--8-8-8-8-------|

G|----------------------------|
D|----------------------------|
A|----------------------------|
E|--6--6--8--8--9--9--11--11--|

2:36
G|----------------------|----------------------|----------------------|
D|----------------------|----------------------|----------------------|
A|----------------------|--6-6-6-6-------------|----------------------|
E|--7-7-7-7-6--7-6-6-6--|----------9--9-9-9-9--|--7-7-7-7-9--9-9-9-9--|

G|------------------|----------------------|----------------------|
D|------------------|----------------------|----------------------|
A|--9-9-9-7--7-7-7--|----------------------|--6-6-6-6-------------|
E|------------------|--7-7-7-7-9--7-6-6-6--|----------9--9-9-9-9--|

G|----------------------|----------------------|
D|----------------------|----------------------|
A|----------------------|--9-9-9-9-7--7-7-7-7--|
E|--7-7-7-7-9--9-9-9-9--|----------------------|

3:02
G|--------8--|-----------|-------------------|
D|------8----|-----------|----4-4------------|
A|--6-6------|--------4--|--2-----2-------4--|
E|-----------|--6-4-6----|----------2-2-1----|

G|--------8--|-----------|----3/4--3-----------|
D|------8----|-----------|-----------4---------|
A|--6-6------|--------4--|--2-------------4-5--|
E|-----------|--6-4-6----|------------2-2------|

G|--------8--|-----------|-------------------|
D|------8----|-----------|----4-4------------|
A|--6-6------|--------4--|--2-----2-------4--|
E|-----------|--6-4-6----|----------2-2-1----|

G|------6-8--|-----------|----3/4-3------------------|
D|----8------|-----------|----------4---4------------|
A|--6--------|--------4--|--2-------------4-2--------|
E|-----------|--6-4-6----|------------2-------2------|

End
Добавлено: 31.10.2015
Другие материалы по этой песне:
  • Аккорды и текст

Страница создана 31.10.2015
http://primanota.ru/chatmonchy/somaru-yo-chords.htm
Привет, Гость.
Предлагаем пройти революционный курс по гитаре.
Подарок от PrimaNota.Ru, забирай!