PrimaNota.ru - самый крупный в мире бесплатный архив песенных текстов, аккордов, табулатур и нот


Chatmonchy - Mayonaka Yuuenchi - таба, видео

Регистрация Запомнить меня
Войти через:  Facebook Google Twitter Vk Yandex Mail.ru

Chatmonchy - Mayonaka Yuuenchi - таба, видео

Печатать
Просмотров: 115
(From the 2007 Album SEIMEIRYOKU)



Words by Kumiko Takahashi Music by Eriko Hashimoto


Cm7
0 3 5 3 4 3
Bb
0 1 3 3 3 0
Bb/Ab
4 0 3 3 3 0
Ab
3 5 5 4 3 3

Gtr I (E A D G B E) 
Gtr II (E A D G B E)

   .
    Q=160
    Cm7                Bb
   4/4
    Gtr I
    Q  E E +E  E E E   Q  E E +E  E E E
||--3--3-3-(3)-3-3-3-|------------------|
||o-4--4-4-(4)-4-4-4-|-3--3-3-(3)-3-3-3-|
||--3--3-3-(3)-3-3-3-|-3--3-3-(3)-3-3-3-|
||--5--5-5-(5)-5-5-5-|-3--3-3-(3)-3-3-3-|
||o-3--3-3-(3)-3-3-3-|-1--1-1-(1)-1-1-1-|
||-------------------|------------------|


  Bb/Ab              Bb
  Q  E E +E  E E E   Q  E E +E  E E E   4x
|------------------|--------------------||
|-3--3-3-(3)-3-3-3-|-3--3-3-(3)-3-3-3--o||
|-3--3-3-(3)-3-3-3-|-3--3-3-(3)-3-3-3---||
|-3--3-3-(3)-3-3-3-|-3--3-3-(3)-3-3-3---||
|------------------|-------------------o||
|-4--4-4-(4)-4-4-4-|-1--1-1-(1)-1-1-1---||


   .
    Cm7                 Bb                Ab
    Gtr I
    Q   E E +E  E E E   Q   E E E E Q     Q   E E +E  E E E
||--3---3-3-(3)-3-3-3-|-----------------|-4---4-4-(4)-4-4-4-|
||o-4---4-4-(4)-4-4-4-|-3---3-3-3-3-----|-4---4-4-(4)-4-4-4-|
||--3---3-3-(3)-3-3-3-|-3---3-3-3-3-----|-5---5-5-(5)-5-5-5-|
||--5---5-5-(5)-5-5-5-|-3---3-3-3-3-----|-6---6-6-(6)-6-6-6-|
||o-3---3-3-(3)-3-3-3-|-1---1-1-1-1-----|-6---6-6-(6)-6-6-6-|
||--------------------|-------------3---|-4---4-4-(4)-4-4-4-|

   Gtr II
    E E E E  Q    E E   E E Q   E E E E   E E E E  Q    E E
||--6-6-6-6-------6-6-|-6-6-----6-6-6-6-|-6-6-6-6-------6-6-|
||o-------------------|-----------------|-------------------|
||--3-3-3-3-------3-3-|-3-3-----3-3-3-3-|-3-3-3-3-------3-3-|
||--------------------|-----------------|-------------------|
||o-------------------|-----------------|-------------------|
||--------------------|-----------------|-------------------|


  Cm7                 Bb                Ab
  Gtr I
  Q   E E +E  E E E   Q   E E E E Q     Q   E E +E  E E E
|-3---3-3-(3)-3-3-3-|-----------------|-4---4-4-(4)-4-4-4-|
|-4---4-4-(4)-4-4-4-|-3---3-3-3-3-----|-4---4-4-(4)-4-4-4-|
|-3---3-3-(3)-3-3-3-|-3---3-3-3-3-----|-5---5-5-(5)-5-5-5-|
|-5---5-5-(5)-5-5-5-|-3---3-3-3-3-----|-6---6-6-(6)-6-6-6-|
|-3---3-3-(3)-3-3-3-|-1---1-1-1-1-----|-6---6-6-(6)-6-6-6-|
|-------------------|-------------3---|-4---4-4-(4)-4-4-4-|

 Gtr II
  E E Q    E  E E E   E E E E Q   E E   E E Q    E  E E E
|-6-6------6--6-6-6-|-6-6-6-6-----6-6-|-6-6------6--6-6-6-|
|-------------------|-----------------|-------------------|
|-3-3------3--3-3-3-|-3-3-3-3-----3-3-|-3-3------3--3-3-3-|
|-------------------|-----------------|-------------------|
|-------------------|-----------------|-------------------|
|-------------------|-----------------|-------------------|


 .
  Cm7                 Bb                Cm7
  Gtr I
  Q   E E +E  E E E   Q   E E E E Q     Q  E E E E E E
|-3---3-3-(3)-3-3-3-|-----------------|------6---6-----|
|-4---4-4-(4)-4-4-4-|-3---3-3-3-3-----|-4--4---------6-|
|-3---3-3-(3)-3-3-3-|-3---3-3-3-3-----|------------3---|
|-5---5-5-(5)-5-5-5-|-3---3-3-3-3-----|----------------|
|-3---3-3-(3)-3-3-3-|-1---1-1-1-1-----|----------------|
|-------------------|-------------3---|----------------|

 Gtr II
  E E Q    E  E E E   E E E E Q   E E
|-6-6------6--6-6-6-|-6-6-6-6-----6-6-|----------------|
|-------------------|-----------------|----------------|
|-3-3------3--3-3-3-|-3-3-3-3-----3-3-|----------------|
|-------------------|-----------------|----------------|
|-------------------|-----------------|----------------|
|-------------------|-----------------|----------------|


  Bb                Ab               Bb
  E E E E E E E E   Q  E E E E E E   E E E E E E E E
|-----3---3-------|------6---6-----|-----------------|
|---6-------------|-4--4---------6-|---6-------3---3-|
|-----------3---3-|------------3---|-------3---------|
|-----------------|----------------|-----3---3-------|
|-----------------|----------------|-----------------|
|-----------------|----------------|-----------------|


  Cm7              Bb                Ab
  Q  E E E E E E   E E E E E E E E   Q  E E E E E E
|------6---6-----|-----3---3-------|------6---6-----|
|-4--4---------6-|---6-------------|-4--4---------6-|
|------------3---|-----------3---3-|------------3---|
|----------------|-----------------|----------------|
|----------------|-----------------|----------------|
|----------------|-----------------|----------------|
                   E


  Bb                Cm7              Bb
  E E E E E E E E   Q  E E E E E E   E E E E E E E E
|-----------------|------6---6-----|-----3---3-------|
|---6-------3---3-|-4--4---------6-|---6-------3---3-|
|-------3---------|------------3---|-------5---------|
|-----3---3-------|----------------|-----------------|
|-----------------|----------------|-----------------|
|-----------------|----------------|-----------------|


    Cm7              Bb
    Q  E E E E E E   E E E E E E E E
|-|------6---6-----|-----------------|
|-|-4--4---------6-|---6-------6---6-|
|-|------------3---|-------3---------|
|-|----------------|-----3-----------|
|-|----------------|-----------------|
|-|----------------|-----------------|


  Ab              Bb                Cm7
  Q  E E Q  E E   E E E E E E E E   Q  E E E E E E
|------6--------|-----------------|------6---6-8---|
|-4--4----------|---6-------3---3-|-4--4---------6-|
|-----------3-6-|-------3---------|----------------|
|---------------|-----3---3-------|----------------|
|---------------|-----------------|----------------|
|---------------|-----------------|----------------|


              Cm7
              Q  E E E E E E
|-|---------|------6---6-----|
|-|---------|-4--4---------6-|
|-|---------|------------3---|
|-|---------|----------------|
|-|---------|----------------|
|-|---------|----------------|


  Bb                Ab              Bb
  E E E E E E E E   Q  E E Q  E E   E E E E E E E E
|-----3---3-------|------6--------|-----------------|
|---6-------3---3-|-4--4--------6-|---6-------------|
|-------5---------|-----------3---|-------3---3-----|
|-----------------|---------------|-----3---3---3---|
|-----------------|---------------|---------------5-|
|-----------------|---------------|-----------------|


  Bb                Ab             Bb
  E E E E E E E E   Q  Q  E E Q    H    E E E E
|-----3---3-------|-4-----4-4----|--------------|
|---6-------------|-4-----4-4----|--------3-3-3-|
|-----------------|-5-----5-5----|--------3-3-3-|
|-----------3---3-|-6-----6-6----|--------3-3-3-|
|-----------------|-6-----6-6----|--------1-1-1-|
|-----------------|-4-----4-4----|--------------|


 .
  Cm7                Bb                Ab
  Q  E E +E  E E E   Q  E E +E  E Q    Q  E E +E  E E E
|-3--3-3-(3)-3-3-3-|-----------------|-4--4-4-(4)-4-4-4-|
|-4--4-4-(4)-4-4-4-|-3--3-3-(3)-3-3--|-4--4-4-(4)-4-4-4-|
|-3--3-3-(3)-3-3-3-|-3--3-3-(3)-3-3--|-5--5-5-(5)-5-5-5-|
|-5--5-5-(5)-5-5-5-|-3--3-3-(3)-3-3--|-6--6-6-(6)-6-6-6-|
|-3--3-3-(3)-3-3-3-|-1--1-1-(1)-1-1--|-6--6-6-(6)-6-6-6-|
|------------------|-----------------|-4--4-4-(4)-4-4-4-|


  Ab                 Cm7                Bb
  Q  E E +E  E E E   Q  E E +E  E E E   Q  E E +E  E E E
|-4--4-4-(4)-4-4-4-|-3--3-3-(3)-3-3-3-|------------------|
|-4--4-4-(4)-4-4-4-|-4--4-4-(4)-4-4-4-|-3--3-3-(3)-3-3-3-|
|-5--5-5-(5)-5-5-5-|-3--3-3-(3)-3-3-3-|-3--3-3-(3)-3-3-3-|
|-6--6-6-(6)-6-6-6-|-5--5-5-(5)-5-5-5-|-3--3-3-(3)-3-3-3-|
|-6--6-6-(6)-6-6-6-|-3--3-3-(3)-3-3-3-|-1--1-1-(1)-1-1-1-|
|-4--4-4-(4)-4-4-4-|------------------|------------------|


  Ab                 Ab                 Cm7
  Q  E E +E  E E E   Q  E E +E  E E E   Q  E E +E  E E E
|-4--4-4-(4)-4-4-4-|-4--4-4-(4)-4-4-4-|-3--3-3-(3)-3-3-3-|
|-4--4-4-(4)-4-4-4-|-4--4-4-(4)-4-4-4-|-4--4-4-(4)-4-4-4-|
|-5--5-5-(5)-5-5-5-|-5--5-5-(5)-5-5-5-|-3--3-3-(3)-3-3-3-|
|-6--6-6-(6)-6-6-6-|-6--6-6-(6)-6-6-6-|-5--5-5-(5)-5-5-5-|
|-6--6-6-(6)-6-6-6-|-6--6-6-(6)-6-6-6-|-3--3-3-(3)-3-3-3-|
|-4--4-4-(4)-4-4-4-|-4--4-4-(4)-4-4-4-|------------------|


  Bb                 Ab                 Ab
  Q  E E +E  E E E   Q  E E +E  E E E   Q  E E +E  E E E
|------------------|-4--4-4-(4)-4-4-4-|-4--4-4-(4)-4-4-4-|
|-3--3-3-(3)-3-3-3-|-4--4-4-(4)-4-4-4-|-4--4-4-(4)-4-4-4-|
|-3--3-3-(3)-3-3-3-|-5--5-5-(5)-5-5-5-|-5--5-5-(5)-5-5-5-|
|-3--3-3-(3)-3-3-3-|-6--6-6-(6)-6-6-6-|-6--6-6-(6)-6-6-6-|
|-1--1-1-(1)-1-1-1-|-6--6-6-(6)-6-6-6-|-6--6-6-(6)-6-6-6-|
|------------------|-4--4-4-(4)-4-4-4-|-4--4-4-(4)-4-4-4-|


  Cm7                Bb
  Q  E E +E  E E E   Q  E E +E  E E E
|-3--3-3-(3)-3-3-3-|------------------|
|-4--4-4-(4)-4-4-4-|-3--3-3-(3)-3-3-3-|
|-3--3-3-(3)-3-3-3-|-3--3-3-(3)-3-3-3-|
|-5--5-5-(5)-5-5-5-|-3--3-3-(3)-3-3-3-|
|-3--3-3-(3)-3-3-3-|-1--1-1-(1)-1-1-1-|
|------------------|------------------|


                     1.
  Ab                 Ab
  Q  E E +E  E E E   Q  E E +E  E E E
|-4--4-4-(4)-4-4-4-|-4--4-4-(4)-4-4-4--||--|
|-4--4-4-(4)-4-4-4-|-4--4-4-(4)-4-4-4-o||--|
|-5--5-5-(5)-5-5-5-|-5--5-5-(5)-5-5-5--||--|
|-6--6-6-(6)-6-6-6-|-6--6-6-(6)-6-6-6--||--|
|-6--6-6-(6)-6-6-6-|-6--6-6-(6)-6-6-6-o||--|
|-4--4-4-(4)-4-4-4-|-4--4-4-(4)-4-4-4--||--|


 .
  2.
  Ab                 Cm7   Bb      Ab    Bb
  Q  E E +E  E E E   Q  Q  Q  Q    Q  Q  Q  Q
|-4--4-4-(4)-4-4-4-|----6--------|----3--------|
|-4--4-4-(4)-4-4-4-|-4-----6-----|----------3--|
|-5--5-5-(5)-5-5-5-|----------3--|-5-----------|
|-6--6-6-(6)-6-6-6-|-------------|-------3-----|
|-6--6-6-(6)-6-6-6-|-------------|-------------|
|-4--4-4-(4)-4-4-4-|-------------|-------------|


  Cm7   Bb      Ab    Bb      Cm7   Bb      Ab    Bb
  Q  Q  Q  Q    Q  Q  Q  Q    Q  Q  Q  Q    Q  Q  Q  Q
|----6--------|----3--------|----6--------|----3--------|
|-4-----6-----|----------3--|-4-----6-----|----------3--|
|----------3--|-5-----------|----------3--|-5-----------|
|-------------|-------3-----|-------------|-------3-----|
|-------------|-------------|-------------|-------------|
|-------------|-------------|-------------|-------------|


  Cm7   Bb      Ab     Bb
  Q  Q  Q  Q    Q   Q   Q   Q     W           +W
|----6-----8--|----11------13--|-11--------|-(11)----|
|-4-----6-----|-9------11------|-----------|---------|
|-------------|----------------|-----------|---------|
|-------------|----------------|-----------|---------|
|-------------|----------------|-----------|---------|
|-------------|----------------|-----------|---------|


 .             .             .          .
  Ab            Bb            Cm7        Bb
   +W            +W           W          W
|-(11)--------|-(11)--------|----------|------|
|-------------|-------------|----------|------|
|-------------|-------------|----------|------|
|-------------|-------------|----------|------|
|-------------|-------------|----------|------|
|-------------|-------------|----------|------|


  Ab         Bb         Cm7
  W          W          Q.   E +H
|----------|----------|------6-(6)----|
|----------|----------|-4-------------|
|----------|----------|---------------|
|----------|----------|---------------|
|----------|----------|---------------|
|----------|----------|---------------|


  Bb              Ab              Bb
  Q.   E +H       Q.   E +H       Q.   E +H
|---------------|------3-(3)----|---------------|
|-6-------------|---------------|------3-(3)----|
|------3-(3)----|-5-------------|---------------|
|---------------|---------------|-3-------------|
|---------------|---------------|---------------|
|---------------|---------------|---------------|


  Cm7            Bb              Ab
  Q.  E +H       Q.   E +H       Q.   E +H
|-----6-(6)----|---------------|------3-(3)----|
|-4------------|-6-------------|---------------|
|--------------|------3-(3)----|-5-------------|
|--------------|---------------|---------------|
|--------------|---------------|---------------|
|--------------|---------------|---------------|


 .                 .                   .
  Bb                Cm7                 Bb
                    Gtr I
  E E Q  E E Q      Q   E E +E  E E E   Q   E E +E  E Q
|---------------||--3---3-3-(3)-3-3-3-|-------------------|
|-3-3----3-3----||o-4---4-4-(4)-4-4-4-|-3---3-3-(3)-3-----|
|-3-3----3-3----||--3---3-3-(3)-3-3-3-|-3---3-3-(3)-3-----|
|-3-3----3-3----||--5---5-5-(5)-5-5-5-|-3---3-3-(3)-3-----|
|-1-1----1-1----||o-3---3-3-(3)-3-3-3-|-1---1-1-(1)-1-----|
|---------------||--------------------|---------------3---|

                  Gtr II
                    E E E E  Q    E E   E E Q    E  E E E
|---------------||--6-6-6-6-------6-6-|-6-6------6--6-6-6-|
|---------------||o-------------------|-------------------|
|---------------||--3-3-3-3-------3-3-|-3-3------3--3-3-3-|
|---------------||--------------------|-------------------|
|---------------||o-------------------|-------------------|
|---------------||--------------------|-------------------|


  Ab                  Ab                  Cm7
  Gtr I
  E   E E +E  E E E   Q   E E +E  E E E   Q   E E +E  E E E
|-4---4-4-(4)-4-4-4-|-4---4-4-(4)-4-4-4-|-3---3-3-(3)-3-3-3-|
|-4---4-4-(4)-4-4-4-|-4---4-4-(4)-4-4-4-|-4---4-4-(4)-4-4-4-|
|-5---5-5-(5)-5-5-5-|-5---5-5-(5)-5-5-5-|-3---3-3-(3)-3-3-3-|
|-6---6-6-(6)-6-6-6-|-6---6-6-(6)-6-6-6-|-5---5-5-(5)-5-5-5-|
|-6---6-6-(6)-6-6-6-|-6---6-6-(6)-6-6-6-|-3---3-3-(3)-3-3-3-|
|-4---4-4-(4)-4-4-4-|-4---4-4-(4)-4-4-4-|-------------------|

 Gtr II
  E E E E  Q    E E   E E Q    E  E E E   E E E E  Q    E E
|-6-6-6-6-------6-6-|-6-6------6--6-6-6-|-6-6-6-6-------6-6-|
|-------------------|-------------------|-------------------|
|-3-3-3-3-------3-3-|-3-3------3--3-3-3-|-3-3-3-3-------3-3-|
|-------------------|-------------------|-------------------|
|-------------------|-------------------|-------------------|
|-------------------|-------------------|-------------------|


  Bb                  Ab                  Ab
  Gtr I
  Q   E E +E  E E E   Q   E E +E  E E E   Q   E E +E  E E E
|-------------------|-4---4-4-(4)-4-4-4-|-4---4-4-(4)-4-4-4--||
|-3---3-3-(3)-3-3-3-|-4---4-4-(4)-4-4-4-|-4---4-4-(4)-4-4-4-o||
|-3---3-3-(3)-3-3-3-|-5---5-5-(5)-5-5-5-|-5---5-5-(5)-5-5-5--||
|-3---3-3-(3)-3-3-3-|-6---6-6-(6)-6-6-6-|-6---6-6-(6)-6-6-6--||
|-1---1-1-(1)-1-1-1-|-6---6-6-(6)-6-6-6-|-6---6-6-(6)-6-6-6-o||
|-------------------|-4---4-4-(4)-4-4-4-|-4---4-4-(4)-4-4-4--||

 Gtr II
 E E Q    E  E E E   E E E E  Q    E E   E E Q    E  E E E
|-6-6------6--6-6-6-|-6-6-6-6-------6-6-|-6-6------6--6-6-6--||
|-------------------|-------------------|-------------------o||
|-3-3------3--3-3-3-|-3-3-3-3-------3-3-|-3-3------3--3-3-3--||
|-------------------|-------------------|--------------------||
|-------------------|-------------------|-------------------o||
|-------------------|-------------------|--------------------||


  Cm7       Bb  Ab            Bb      Cm7       Bb
  E E E E E E E E   E E E E E E E E   E E E E E Q.
|---3-3-3-------4-|---4---4---------|---3---3--------|
|---4-4-4---3---4-|---4---4---3---3-|---4---4---3----|
|---3-3-3---3---5-|---5---5---3---3-|---3---3---3----|
|---5-5-5---3---6-|---6---6---3---3-|---5---5---3----|
|---3-3-3---1---6-|---6---6---1---1-|---3---3---1----|
|---------------4-|---4---4---------|----------------|


  Bb
  +W           +W           +W
|------------|------------|--------*|
|-(3)--------|-(3)--------|-(3)----*|
|-(3)--------|-(3)--------|-(3)----*|
|-(3)--------|-(3)--------|-(3)----*|
|-(1)--------|-(1)--------|-(1)----*|
|------------|------------|--------*|



Tablature Legend
----------------
 h   - hammer-on
 p   - pull-off
 b   - bend
 pb  - pre-bend
 r   - bend release (if no number after the r, then release immediately)
 /\  - slide into or out of (from/to "nowhere")
 s   - legato slide
 S   - shift slide
 - natural harmonic
[n]  - artificial harmonic
n(n) - tapped harmonic
 ~   - vibrato
 tr  - trill
 T   - tap
 TP  - trem. picking
 PM  - palm muting
\n/  - tremolo bar dip; n = amount to dip
 \n  - tremolo bar down
 n/  - tremolo bar up
/n\  - tremolo bar inverted dip
 =   - hold bend; also acts as connecting device for hammers/pulls
 <> - volume swell (louder/softer)
 x   - on rhythm slash represents muted slash
 o   - on rhythm slash represents single note slash
Добавлено: 09.05.2012
Другие материалы по этой песне:

Страница создана 11.03.2012
http://primanota.ru/chatmonchy/mayonaka-yuuenchi-chords.htm
Привет, Гость.
Предлагаем пройти революционный курс по гитаре.
Подарок от PrimaNota.Ru, забирай!