PrimaNota.ru - самый крупный в мире бесплатный архив песенных текстов, аккордов, табулатур и нот


Chasing Victory - Ready Set Go - таба, видео

Регистрация Запомнить меня
Войти через:  Facebook Google Twitter Vk Yandex Mail.ru

Chasing Victory - Ready Set Go - таба, видео

Печатать
Просмотров: 161
Уроки эстрадного вокала в Санкт-Петербурге
Artist: Chasing Victory
Album: A Not So Tragic Cover Up
Tabbed By: Patrick Wilkins
Tuning: Drop “D”
 Key:
·       * - Palm Mute
·       >- Slide Up
·       <- Slide Down
·       p- Pull Off
·       h- Hammer On

   Intro –
Guitar A.  (2 Measures.)

e|--------------------------------------------------------------------------|
B|--------------------------------------------------------------------------|
G|---------5---5---5---6--5-------------5---5---5---6--5--------------------|
D|-------3---3---3-----------4------------------------------4---------------|
A|---------------------------------------0---0---0--------------------------|
E|--------------------------------------------------------------------------|

Guitar B. (2 Measures.)
                          (F)
e|-------------------------------------------------------------------------|
B|-------------------------------------------------------------------------|
G|-------------------------------------------------------------------------|
D|-------333333333333333333333333333333333333------------------------------|
A|-------333333333333333333333333333333333333------------------------------|
E|-------333333333333333333333333333333333333------------------------------|
         ************************************
                           (A)
e|-------------------------------------------------------------------------|
B|-------------------------------------------------------------------------|
G|-------------------------------------------------------------------------|
D|-------777777777777777777777777777777777777------------------------------|
A|-------777777777777777777777777777777777777------------------------------|
E|-------777777777777777777777777777777777777------------------------------|
         ************************************


Verse 1.

Guitar A.

e|-------------------------------------------------------------------------|
B|-------------------------------------------------------------------------|
G|-------101010---------777---101010----99>1010----------------------------|
D|-------xxxxxx---777---xxx---xxxxxx----xx>xxxx--0000--3333----------------|
A|-------888888---777---555---888888---77>8888---0000--3333----------------|
E|----------------777----------------------------0000—-3333----------------|

e|-------------------------------------------------------------------------|
B|-------------------------------------------------------------------------|
G|-------101010---------777---101010----99>1010----------------------------|
D|-------xxxxxx---777---xxx---xxxxxx----xx>xxxx--0000--3333----------------|
A|-------888888---777---555---888888---77>8888---0000--3333----------------|
E|----------------777----------------------------0000—-3333----------------|

e|-------------------------------------------------------------------------|
B|-------------------------------------------------------------------------|
G|-------101010---------777---101010----99>1010----------------------------|
D|-------xxxxxx---777---xxx---xxxxxx----xx>xxxx--0000--3333----------------|
A|-------888888---777---555---888888---77>8888---0000--3333----------------|
E|----------------777----------------------------0000—-3333----------------|

e|-------------------------------------------------------------------------|
B|-------------------------------------------------------------------------|
G|-------101010---------777---101010----99>1010----------------------------|
D|-------xxxxxx---777---xxx---xxxxxx----xx>xxxx--0000000000----------------|
A|-------888888---777---555---888888---77>8888---0000000000----------------|
E|----------------777----------------------------0000000000----------------|

e|------------------------------------------------------------------------|
B|-----6p5h5--------------------------------------------------------------|
G|------------5>7<5-------------------------------------------------------|(x8)
D|------------------------------------------------------------------------|
A|------------------------------------------------------------------------|
E|------------------------------------------------------------------------|


Verse 1.

Guitar B.

e|-------------------------------------------------------------------------|
B|-------------------------------------------------------------------------|
G|-------101010---------777---101010----99>1010----------------------------|
D|-------xxxxxx---777---xxx---xxxxxx----xx>xxxx--0000--3333----------------|
A|-------888888---777---555---888888---77>8888---0000--3333----------------|
E|----------------777----------------------------0000—-3333----------------|

e|-------------------------------------------------------------------------|
B|-------------------------------------------------------------------------|
G|-------101010---------777---101010----99>1010----------------------------|
D|-------xxxxxx---777---xxx---xxxxxx----xx>xxxx--0000--3333----------------|
A|-------888888---777---555---888888---77>8888---0000--3333----------------|
E|----------------777----------------------------0000—-3333----------------|

e|-------------------------------------------------------------------------|
B|-------------------------------------------------------------------------|
G|-------101010---------777---101010----99>1010----------------------------|
D|-------xxxxxx---777---xxx---xxxxxx----xx>xxxx--0000--3333----------------|
A|-------888888---777---555---888888---77>8888---0000--3333----------------|
E|----------------777-----------------------------0000—3333----------------|

e|-------------------------------------------------------------------------|
B|-------------------------------------------------------------------------|
G|-------101010---------777---101010----99>1010----------------------------|
D|-------xxxxxx---777---xxx---xxxxxx----xx>xxxx--0000000000----------------|
A|-------888888---777---555---888888---77>8888---0000000000----------------|
E|----------------777----------------------------0000000000----------------|

e|---------------------------------------------------------------------------|
B|---------------------------------------------------------------------------|
G|-------101010---101010-----------------------------------------------------|
D|-------101010---101010---888888--------------------------------------------|(x6)
A|-------888888---777777---888888--------------------------------------------|
E|-------------------------888888--------------------------------------------|
         ******   ******  ******
          (F)      (E)        (A#)

e|---------------------------------------------------------------------------|
B|---------------------------------------------------------------------------|
G|-------101010---121212---888888--------------------------------------------|
D|-------xxxxxx---xxxxxx---888888--------------------------------------------|(x2)
A|-------888888---101010---888888--------------------------------------------|
E|---------------------------------------------------------------------------|
        (F)        (G)      (A#)

Chorus 1.

Guitar A.

e|-------------------------------------------------------------------------|
B|-------------------------------------------------------------------------|
G|-----101010---121212---9999x9>101010-------------------------------------|
D|-----xxxxxx---xxxxxx---xxxxxx> xxxxxx ----888888888888-------------------|
A|-----888888---101010---7777x7>888888------888888888888-------------------|
E|------------------------------------------888888888888—------------------|

e|-------------------------------------------------------------------------|
B|-------------------------------------------------------------------------|
G|-----101010---121212---9999x9>121212-------------------------------------|
D|-----xxxxxx---xxxxxx---xxxxxx>xxxxxx------888888888888-------------------|
A|-----888888---101010---7777x7>101010------888888888888-------------------|
E|------------------------------------------888888888888—------------------|


e|--------------------------------------------------------------------------|
B|--------------------------------------------------------------------------|
G|-----101010---121212---9999x9>101010--------------------------------------|
D|-----xxxxxx---xxxxxx---xxxxxx>xxxxxx -----888888888888--------------------|
A|-----888888---101010---7777x7>888888------888888888888--------------------|
E|------------------------------------------888888888888—-------------------|


e|-------------------------------------------------------------------------|
B|-------------------------------------------------------------------------|
G|-----101010---121212---9999x9>121212-------------------------------------|
D|-----xxxxxx---xxxxxx---xxxxxx>xxxxxx -----888888888888-------------------|
A|-----888888---101010---7777x7>101010------888888888888-------------------|
E|------------------------------------------888888888888-------------------|

Chorus 1.

Guitar B.


e|-------------------------------------------------------------------------|
B|-------------------------------------------------------------------------|
G|-----101010---121212---9999x9>101010-------------------------------------|
D|-----xxxxxx---xxxxxx---xxxxxx>xxxxxx -----888888888888-------------------|
A|-----888888---101010---7777x7>888888------888888888888-------------------|
E|------------------------------------------888888888888—------------------|

e|-------------------------------------------------------------------------|
B|-------------------------------------------------------------------------|
G|-----101010---121212---9999x9>121212-------------------------------------|
D|-----xxxxxx---xxxxxx---xxxxxx>xxxxxx -------888888888888-----------------|
A|-----888888---101010---7777x7>101010--------888888888888-----------------|
E|--------------------------------------------888888888888—----------------|


e|-------------------------------------------------------------------------|
B|-------------------------------------------------------------------------|
G|-----101010---121212---9999x9>101010-------------------------------------|
D|-----xxxxxx---xxxxxx---xxxxxx>xxxxxx--------888888888888-----------------|
A|-----888888---101010---7777x7>888888--------888888888888-----------------|
E|--------------------------------------------888888888888-----------------|


e|-------------------------------------------------------------------------|
B|-------------------------------------------------------------------------|
G|-----101010---121212---9999x9>121212-------------------------------------|
D|-----xxxxxx---xxxxxx---xxxxxx>xxxxxx------888888888888-------------------|
A|-----888888---101010---7777x7>101010------888888888888-------------------|
E|------------------------------------------888888888888-------------------|

Verse 2.

Guitar A.


e|---------------------------------------------------------------------------|
B|---------------------------------------------------------------------------|
G|-------------5--------------5-----------------5---------------5------------|
D|--------3-----3--3-------3----3--3-------3-----3--3-------3-----3—-3-------|x8
A|-----00---0-----0-----11---1----1------33--3-----3------33--3----3---------|
E|---------------------------------------------------------------------------|
                (A)                       (A#)                    (C)                      (C)

Verse 2.

Guitar B.
(After 4 Measures of Guitar A.)


e|--------------------------------------------------------------------------|
B|--------------------------------------------------------------------------|
G|------9999---1010---12121212----------------------------------------------|
D|------7777---8888---10101010---------------------------------------(x4)---|
A|------7777---8888---10101010----------------------------------------------|
E|------7777---8888---10101010----------------------------------------------|
       (A)     (A#)      (C)


Chorus 2.

Guitar A.

e|-------------------------------------------------------------------------|
B|-------------------------------------------------------------------------|
G|-----101010---121212---9999x9>101010-------------------------------------|
D|-----xxxxxx---xxxxxx---xxxxxx>xxxxxx -----888888888888-------------------|
A|-----888888---101010---7777x7>888888------888888888888-------------------|
E|------------------------------------------888888888888—------------------|

e|-------------------------------------------------------------------------|
B|-------------------------------------------------------------------------|
G|-----101010---999999---1010x10>121212------------------------------------|
D|-----xxxxxx---xxxxxx---xxxxxx>xxxxxx------888888888888-------------------|
A|-----888888---777777---8888x8>101010------888888888888-------------------|
E|------------------------------------------888888888888—------------------|


e|-------------------------------------------------------------------------|
B|-------------------------------------------------------------------------|
G|-----101010---999999---1010x10>121212------------------------------------|
D|-----xxxxxx---xxxxxx---xxxxxx>xxxxxx -------888888888888-----------------|
A|-----888888---777777---8888x8>101010--------888888888888-----------------|
E|--------------------------------------------888888888888—----------------|

e|-------------------------------------------------------------------------|
B|-------------------------------------------------------------------------|
G|-----101010---999999---1212x12>141414------------------------------------|
D|-----xxxxxx---xxxxxx---xxxxxxx>xxxxxxx------888888888888-----------------|
A|-----888888---777777---1010x10>121212-------888888888888-----------------|
E|--------------------------------------------888888888888—----------------|


Chorus 2.

Guitar B.

e|-------------------------------------------------------------------------|
B|-------------------------------------------------------------------------|
G|-----101010---121212---9999x9>101010-------------------------------------|
D|-----xxxxxx---xxxxxx---xxxxxx>xxxxxx------888888888888-------------------|
A|-----888888---101010---7777x7>888888------888888888888-------------------|
E|------------------------------------------888888888888—------------------|

e|-------------------------------------------------------------------------|
B|-------------------------------------------------------------------------|
G|-----101010---999999---1010x10>121212------------------------------------|
D|-----xxxxxx---xxxxxx---xxxxxx>xxxxxxx-------888888888888-----------------|
A|-----888888---777777---8888x8>101010--------888888888888-----------------|
E|--------------------------------------------888888888888—----------------|


e|--------------------------------------------------------------------------|
B|--------------------------------------------------------------------------|
G|-----101010---999999---1010x10>121212-------------------------------------|
D|-----xxxxxx---xxxxxx---xxxxxx>xxxxxx -----888888888888--------------------|
A|-----888888---777777---8888x8>101010------888888888888--------------------|
E|------------------------------------------888888888888—-------------------|


e|-------------------------------------------------------------------------|
B|-------------------------------------------------------------------------|
G|-----101010---999999---1212x12>141414------------------------------------|
D|-----xxxxxx---xxxxxx---xxxxxxx>xxxxxx--------888888888888----------------|
A|-----888888---777777---1010x10>121212--------888888888888----------------|
E|---------------------------------------------888888888888—---------------|


Bridge/Outro.

Guitar A.

e|-------------------------------------------------------------------------|
B|-------------------------------------------------------------------------|
G|-------------------------------------------------------------------------|
D|-----0000000000000-------------------------------------------------------|
A|-----0000000000000-------------------------------------------------------|
E|-----0000000000000-------------------------------------------------------|


e|---------------------------------------------------------------------------|
B|--10h11p10-------10h11p10-------10h11p10-----------------------------------|
G|----------10-10-----------10-10-----------10-10-9-9-9----------------------|
D|---------------------------------------------------------------------------|
A|---------------------------------------------------------------------------|
E|---------------------------------------------------------------------------|


e|--------------------------------------------------------------------------|
B|--10h11p10-------10h11p10-------10h11p10----------------------------------|
G|----------10-10-----------10-10-----------10-10-9-9-9---------------------|
D|--------------------------------------------------------------------------|
A|--------------------------------------------------------------------------|
E|--------------------------------------------------------------------------|


e|--------------------------------------------------------------------------|
B|--10h11p10-------10h11p10-------10h11p10----------------------------------|
G|-----------10-10---------10-10------------10-10-9-9-9---------------------|
D|--------------------------------------------------------------------------|
A|--------------------------------------------------------------------------|
E|--------------------------------------------------------------------------|

e|--------------------------------------------------------------------------|
B|--10h11p10-------10h11p10-------10h11p10--------10h11p10------------------|
G|-----------10-10----------10-10-----------10-10----------10-10------------|
D|--------------------------------------------------------------------------|
A|--------------------------------------------------------------------------|
E|--------------------------------------------------------------------------|


e|-------------------------------------------------------------------------|
B|-------------------------------------------------------------------------|
G|-------------------------------------------------------------------------|
D|---0000---0000---0000---0000---0000---0000---0000---0000-----------------|
A|---0000---0000---0000---0000---0000---0000---0000---0000-----------------|
E|---0000---0000---0000---0000---0000---0000---0000---0000—----------------|

e|-------------------------------------------------------------------------|
B|-------------------------------------------------------------------------|
G|-------------------------------------------------------------------------|
D|---0000---0000---0000---0000---0000---0000---0000---0000-----------------|
A|---0000---0000---0000---0000---0000---0000---0000---0000-----------------|
E|---0000---0000---0000---0000---0000---0000---0000---0000—----------------|

Bridge/Outro.

Guitar B.

e|-------------------------------------------------------------------------|
B|-------------------------------------------------------------------------|
G|-------------------------------------------------------------------------|
D|-----0000000000000-------------------------------------------------------|
A|-----0000000000000-------------------------------------------------------|
E|-----0000000000000-------------------------------------------------------|

e|-------------------------------------------------------------------------|
B|-------------------------------------------------------------------------|
G|-------------------------------------------------------------------------|
D|---888888888888---333333333333---777777777777----------------------------|
A|---888888888888---333333333333---777777777777----------------------------|
E|---888888888888---333333333333---777777777777----------------------------|


e|--------------------------------------------------------------------------|
B|--------------------------------------------------------------------------|
G|--------------------------------------------------------------------------|
D|---0000---0000---0000---0000---0000---0000---0000---0000------------------|
A|---0000---0000---0000---0000---0000---0000---0000---0000------------------|
E|---0000---0000---0000---0000---0000---0000---0000---0000—-----------------|

e|-------------------------------------------------------------------------|
B|-------------------------------------------------------------------------|
G|-------------------------------------------------------------------------|
D|---0000---0000---0000---0000---0000---0000---0000---0000-----------------|
A|---0000---0000---0000---0000---0000---0000---0000---0000-----------------|
E|---0000---0000---0000---0000---0000---0000---0000---0000—----------------|


e|-------------------------------------------------------------------------|
B|-------------------------------------------------------------------------|
G|-------------------------------------------------------------------------|
D|---0000---0000---0000---0000---0000---0000---0000---0000-----------------|
A|---0000---0000---0000---0000---0000---0000---0000---0000-----------------|
E|---0000---0000---0000---0000---0000---0000---0000---0000—----------------|
Добавлено: 25.02.2012
Другие материалы по этой песне:
  • Аккорды и текст

Страница создана 25.02.2012
http://primanota.ru/chasing-victory/ready-set-go-chords.htm
Привет, Гость.
Предлагаем пройти революционный курс по гитаре.
Подарок от PrimaNota.Ru, забирай!