PrimaNota.ru - самый крупный в мире бесплатный архив песенных текстов, аккордов, табулатур и нот


Chasing Victory - Oceans Away - текст песни, таба, видео

Регистрация Запомнить меня
Войти через:  Facebook Google Twitter Vk Yandex Mail.ru

Chasing Victory - Oceans Away - текст песни, таба, видео

Печатать
Просмотров: 173
Уроки эстрадного вокала в Санкт-Петербурге
This song is amazing and so are the rest
of chasing victory's songs.
This Tab is only some of the parts and they aren't all accurate
So I need some comments to help figure it out

Intro

|--------------------------------------------------------------------------|
|--------------------------------------------------------------------------|
|------------------------------------------------------------------tens----|
|0-x-xx---x-xx--x-33-55-00---x-xx---x-xx----x-33-55555555--8888--10101010--|
|0-x-xx---x-xx--x-33-55-00---x-xx---x-xx----x-33-55555555--8888--10101010--|
|0-x-xx---x-xx--x-33-55-00---x-xx---x-xx----x-33-55555555--8888--10101010--|

|--------------------------------------------------------------------------|
|--------------------------------------------------------------------------|
|------9/10/9----x-55---x-77---------9/10/9----x-55---x-1010---------------|
|0-x---x/x /x----x-xx---x-xx----0-x--x/x /x----x-xx---x--x-x---------------|
|0-x---7/8 /7----x-33---x-55----0-x--7/8 /7----x-33---x--8-8---------------|
|0-x----------------------------0-x----------------------------------------|

|----------------------------------------------------------------------------|
|----------------------------------------------------------------------------|
|------9/10/9----x-55---x-77---------7/9/10/12\10\9\7------------------------|
|0-x---x/x /x----x-xx---x-xx----0-x--x/x/x/ x \x \x\x------------------------|
|0-x---7/8 /7----x-33---x-55----0-x--5/7/8/ 10\8 \7\5------------------------|
|0-x----------------------------0-x------------------------------------------|
Добавлено: 16.06.2012
Другие материалы по этой песне:
  • Аккорды и текст

Страница создана 13.06.2012
http://primanota.ru/chasing-victory/oceans-away-chords.htm
Привет, Гость.
Предлагаем пройти революционный курс по гитаре.
Подарок от PrimaNota.Ru, забирай!