PrimaNota.ru - самый крупный в мире бесплатный архив песенных текстов, аккордов, табулатур и нот


Chasing Victory - Ghouls Wallflowers - бас-таба, видео

Регистрация Запомнить меня
Войти через:  Facebook Google Twitter Vk Yandex Mail.ru

Chasing Victory - Ghouls Wallflowers - бас-таба, видео

Печатать
Просмотров: 129
Song: Ghouls (Wallflowers)
Artist: Chasing Victory
Album:Fiends

Drop D Tuning

Note: I just wanted to say that this is possibly my favorite song by 
Chasing Victory and I love that Crutch is using a funk scale for his
soloing...

INTRO

G|----------------------------2h3-2h3---2------------------------9--10h11-14/---|
D|------------------4/----------------4---4-2h4-2h3---------9h10----------------|
A|-------0-2-3--3h4----------------------------------2-0-2----------------------|
D|-4-2-4----------------7-5-7------------------------------------------------12/|

G|------------------------------------------------------------------------------|
D|---------------------------------2--------------------------------------------|
A|--------------------------2--2-3----------------------------2-----------------|
D|-4-4-4--4-4-4--3-3-3--2-4----------4-4-4--4-4-4--3-3-3--2-4---0-2-0-2-0-2-----|

G|------------------2-----------------------------------------------------------|
D|--------------------4-2-3-2---------------------------------------------------|
A|----------------------------4-2-0-----------2-0-2----2h3-3-3--2-2-2h3-0-------|
D|-4-2-4----4-2-4--------------------7-5-7--------------------------------------|

VERSE

G|------------------------------------------------------------------------------|
D|------------------------------------------------------------------------------|
A|--------------------------------------------------------0h2-0-2--0h2-0-2-0----|
D|-2h4-2-4--2h4-2-4--2h4-2h4--5h7-5-7--5h7-5-7--5h7-5h7-------------------------|

G|------------------------------------------------------------------------------|
D|------------------------------------------------------------------------------|
A|-2/3-3-3--3-3-3--2-2-2--2-2-0---------------repeat----------------------------|
D|------------------------------------------------------------------------------|

PRE CHORUS

G|------------------------------------------------------------------------------|
D|------------------------------------------------------------------------------|
A|-------2------0-2--------------2------0-2-------------------------------------|
D|-4-2-4----4-2-----4-2~---4-2-4----4-2-----4-2---------------------------------|

CHORUS

G|------------------------------------------------------------------------------|
D|------------------------------------------------------------------------------|
A|-------2-------------------------2----------------2----------------2----------|
D|-4-2-4---4-2-4---4--4--4---4-2-4---4-2-0~---4-2-4---4-2-4~---4-2-4---4-2------|

G|------------------------------------------------------------------------------|
D|------------------------------------------------------------------------------|
A|-2/3-3-3--3-3-3--2-2-2--2-2-0-------------------------------------------------|
D|------------------------------------------------------------------------------|

VERSE

G|------------------------------------------------------------------------------|
D|------------------------------------------------------------------------------|
A|--------------------------------------------------------0h2-0-2--0h2-0-2-0----|
D|-2h4-2-4--2h4-2-4--2h4-2h4--5h7-5-7--5h7-5-7--5h7-5h7-------------------------|

G|------------------------------------------------------------------------------|
D|------------------------------------------------------------------------------|
A|-2/3-3-3--3-3-3--2-2-2--2-2-0------------repeat-------------------------------|
D|------------------------------------------------------------------------------|

CHORUS

G|------------------------------------------------------------------------------|
D|------------------------------------------------------------------------------|
A|-------2-------------------------2----------------2----------------2----------|
D|-4-2-4---4-2-4---4--4--4---4-2-4---4-2-0~---4-2-4---4-2-4~---4-2-4---4-2------|

G|------------------------------------------------------------------------------|
D|------------------------------------------------------------------------------|
A|-2/3-3-3--3-3-3--2-2-2--2-2-0-------------------------------------------------|
D|------------------------------------------------------------------------------|

BRIDGE

G|----------------------------2h3-2h3---2-----------------------9--10h11-14\----|
D|------------------4/----------------4---4-2h4-2h3--------9h10-----------------|
A|-------0-2-3--3h4---------------------------------2-0-2-------------------2~--|
D|-4-2-4----------------7-5-7-------------------------------------------------4~|

BREAKDOWN

G|------------------------------------------------------------------------------|
D|---------------------------------2---------------------------------2----------|
A|--------------------------2--2-3----------------------------2--2-3------------|
D|-4-4-4--4-4-4--3-3-3--2-4----------4-4-4--4-4-4--3-3-3--2-4-------------------|

G|------------------------------------------------------------------------------|
D|-------------2------------2-------------2-------------------------------------|
A|------2--2-3-------2--2-3--------2--2-3--------2------------------------------|
D|--2-4----------2-4-----------2-4-----------2-4-----------0-2-0-2--------------|

VERSE

G|------------------------------------------------------------------------------|
D|------------------------------------------------------------------------------|
A|--------------------------------------------------------0h2-0-2--0h2-0-2-0----|
D|-2h4-2-4--2h4-2-4--2h4-2h4--5h7-5-7--5h7-5-7--5h7-5h7-------------------------|

G|------------------------------------------------------------------------------|
D|------------------------------------------------------------------------------|
A|-2/3-3-3--3-3-3--2-2-2--2-2-0------------repeat-------------------------------|
D|-------------------------------------------------------------4/--14\2---------|

CHORUS

G|------------------------------------------------------------------------------|
D|------------------------------------------------------------------------------|
A|-------2----------------2----------------2-------------------------2----------|
D|-4-2-4---4-2-4~---4-2-4---4-2-0~---4-2-4---4-2-4---4--4--4---4-2-4---4-2------|

G|------------------------------------------------------------------------------|
D|------------------------------------------------------------------------------|
A|-2/3-3-3--3-3-3--2-2-2--2-2-0-------------------------------------------------|
D|------------------------------------------------End-on---4-2-4/---------------|

Fin.

Please rate and comment...
Добавлено: 26.02.2012
Другие материалы по этой песне:
  • Аккорды и текст

Страница создана 26.02.2012
http://primanota.ru/chasing-victory/ghouls-wallflowers-chords.htm
Привет, Гость.
Предлагаем пройти революционный курс по гитаре.
Подарок от PrimaNota.Ru, забирай!