PrimaNota.ru - самый крупный в мире бесплатный архив песенных текстов, аккордов, табулатур и нот


Chase Goehring - Hurt - таба, видео

Регистрация Запомнить меня
Войти через:  Facebook Google Twitter Vk Yandex Mail.ru

Chase Goehring - Hurt - таба, видео

Печатать
Просмотров: 108
-------------------------------------------------------------------------------
                            Chase Goehring - Hurt
-------------------------------------------------------------------------------
Tabbed by: michael_zarr
E-mail:

Tuning:

e|-3---3---3---3-----------------------------------------------------------------|
B|-3---3---3---3-----------------------------------------------------------------|
G|-0---0---0---0-----------------------------------------------------------------|
D|-2---2---0---0-----------------------------------------------------------------|
A|-2---3---2---2-----------------------------------------------------------------|
E|-0---0---3---0------------------------------------------------------------------|

Honestly, thats it. Listen to the song to know when the change chords.
Добавлено: 12.12.2015
Другие материалы по этой песне:
  • Аккорды и текст

Страница создана 12.12.2015
http://primanota.ru/chase-goehring/hurt-chords.htm
Привет, Гость.
Предлагаем пройти революционный курс по гитаре.
Подарок от PrimaNota.Ru, забирай!