PrimaNota.ru - самый крупный в мире бесплатный архив песенных текстов, аккордов, табулатур и нот


Chase Coy - Sunny Afternoons - таба, видео

Регистрация Запомнить меня
Войти через:  Facebook Google Twitter Vk Yandex Mail.ru

Chase Coy - Sunny Afternoons - таба, видео

Печатать
Просмотров: 132
-------------------------------------------------------------------------------
                             SUNNY AFTERNOONS - Chase Coy
-------------------------------------------------------------------------------
Tabbed by: joshdicks
Email: josh.dicks@hotmail.com

So I know that this tab is not perfect but it's about 90% accurate. 
I just wanted to put a tab up for this song so maybe someone else 
after me will get an idea of how the song is played, 
and they will make this tab even better. It's standard tuning with a capo on the 2nd fret. 
Its basic finger-picking so you only need two fingers 
(thumb and pointer finger). 
E-Mail me for any questions or comments. Enjoy!

Intro: Repeat it 2x

     C            B?          Dmin          F
e|--------------------------------0h1--1-------------------------------------|
B|--------1-----------1-----------0----0----------1--------------------------|
G|---------0-0---------0-0------2-----2-------0h2---2------------------------|
D|----0h2---2--------0--0-----0-------------3---------3----------------------|
A|---3------------0h2--------------------------------------------------------|
E|---------------------------------------------------------------------------|

(intro cont.) 
     C            B?          F
e|-----------------------------1--1-------1--1----1--------------------------|
B|--------1-----------1--------1--1-------1----1--1--------------------------|
G|---------0-0---------0-0-----2----2--0h2--------2--------------------------|
D|----0h2---2--------0--0------3-------3----------3--------------------------|
A|---3------------0h2----------3---------------------------------------------|
E|----------------------------1----------------------------------------------|

And then the verses are pretty simple because 
they are just the introduction played over again, 
and then it moves on into the chorus, 
but before you play the chorus and you 
finger-pick your final F chord it goes 
into a G chord and then the chorus...

Chorus:

     C      B?    Am            F           G
e|---------------------------------------------------------------------------|
B|-----1-1----1-1---1-1--------------1----------3----------------------------|
G|-----0------0-----0--0-------------2-2--------0-----0----------------------|
D|-----2------0-----2---2-------3--3-----3---------------0-------------------|
A|---3-3----2-2---0-0-----------3--3--------2-2------------------------------|
E|------------------------------1--1--------3-3------------------------------|
    "Days   like  these make me miss...     evenings we were..." 
And then when you get to the line 
"younger then..." is when you start 
the chorus back over on the C chord

(intro) 
(verse)
(chorus)

End: 
     C            B?          Dmin          F
e|--------------------------------0h1--1-------------------------------------|
B|--------1-----------1-----------0----0----------1--------------------------|
G|---------0-0---------0-0------2-----2-------0h2---2------------------------|
D|----0h2---2--------0--0-----0-------------3---------3----------------------|
A|---3------------0h2--------------------------------------------------------|
E|---------------------------------------------------------------------------|

(intro cont.) 
And on this part the finger-picking
begins to slow down until it completely 
stops on the F and you strum the whole thing.
 
     C            B?           F
e|-----------------------------1---------------------------------------------|
B|--------1-----------1--------1---------------------------------------------|
G|---------0-0---------0-0-----2---------------------------------------------|
D|----0h2---2--------0--0------3---------------------------------------------|
A|---3------------0h2----------3---------------------------------------------|
E|-----------------------------1---------------------------------------------|

        |CHORD CHART| 

     C   B?  Dmin  F  G   Am
e|---0---0---1-----1--3---0---------------|
B|---1---1---3-----1--3---1---------------|
G|---0---0---2-----2--0---0---------------|
D|---2---0---0-----3--0---2---------------|
A|---3---2---------3--2---0---------------|
E|-----------------1--3-------------------|


| /  slide up
| \  slide down
| h  hammer-on
| p  pull-off
| ~  vibrato
| +  harmonic
| x  Mute note
===============================================================================
Добавлено: 04.04.2012
Другие материалы по этой песне:
  • Аккорды и текст

Страница создана 04.04.2012
http://primanota.ru/chase-coy/sunny-afternoons-chords.htm
Привет, Гость.
Предлагаем пройти революционный курс по гитаре.
Подарок от PrimaNota.Ru, забирай!