PrimaNota.ru - самый крупный в мире бесплатный архив песенных текстов, аккордов, табулатур и нот


Chase Coy - Slow Down - таба, видео

Регистрация Запомнить меня
Войти через:  Facebook Google Twitter Vk Yandex Mail.ru

Chase Coy - Slow Down - таба, видео

Печатать
Просмотров: 123
Song Title:: SLOW DOWN
By:: CHASE COY
capo on 1st fret

Intro:

e|--------3------3-------3-------3----|
B|-----1------1-------1-------1-------|
G|------0------0-------0-------0------|
D|------------------2-------3---------|>>x2
A|---3--------------------------------|
E|------------------------------------|

VERSES:
e|--------3------3-------3-------3----|
B|-----1------1-------1-------1-------|
G|------0------0-------0-------0------|
D|------------------2-------3---------|>>x3
A|---3--------------------------------|
E|------------------------------------|

e|--------3------3-------3-------3----|
B|-----1------1-------1-------1-------|
G|------0------0-------0-------0------|
D|------------------------------------|
A|---0--------------2-----------------|
E|------------------------------------|


Spring is waking up the world here
The end of the school year
And as summer draws near
I'm growing anxious still

Birds are singing in my backyard
So the sun can't be too far
Off painting the landscape
With all it's golden rays

CHORUS:

e|--------3-----3--------3-----3------3-----3-----3-----3---|
B|-----1-----1--------1-----1------1-----1-----1-----1------|
G|------0-----0--------0-----0------0-----0-----0-----0-----|
D|---3----------------------------------------------2-------|>>x3
A|------------------2-------------0-----2-----3-------------|
E|----------------------------------------------------------|

e|-------3------3---|
B|----1-----1-------|
G|-----0------0-----|
D|---3--------------|
A|----------2-------|
E|------------------|

And this is the last summer
we'll have all to ourselves
before next year
when we have to pack and move on out
no matter what happens
I'll miss the friends I've made in this town
and I wish
time would just slow down

**repeat intro**
VERSE:

I wonder what the future holds for me
it's terrifying honestly
so I guess  I'll just wait
and see if I survive

**then chorus**

slow down slow down...
    x3
e|---3--3--3---|-------3-----3-----3-----3---------3-----------3---|
B|---1--1--1---|----1-----1-----1-----1------1---------1-----------|
G|-------------|-----0-----0-----0-----0--------0-----------0------|
D|-------------|---------------------2-----3-----------------------|
A|---0--2--3---|---0-----2-----3-----------------------2-----------|
E|-------------|---------------------------------------------------|

**then chorus**


end in C


:::::::::::::::::::::::::::::::::::::::::::::::::::::::::::::::
this may not be very accurate but that's how I play this song.
so if there are things that
 are wrong on the tab or whatever please tell me so
send it to my account: gp_bueza@yahoo.com
please rate:D
thank you
::by: amiappreciated ::::::::::::::::::::::::::::::::::::::::::
Добавлено: 29.06.2012
Другие материалы по этой песне:

Страница создана 28.03.2012
http://primanota.ru/chase-coy/slow-down-chords.htm
Привет, Гость.
Предлагаем пройти революционный курс по гитаре.
Подарок от PrimaNota.Ru, забирай!