PrimaNota.ru - самый крупный в мире бесплатный архив песенных текстов, аккордов, табулатур и нот


Chase Coy - Never Had The Courage - таба, видео

Регистрация Запомнить меня
Войти через:  Facebook Google Twitter Vk Yandex Mail.ru

Chase Coy - Never Had The Courage - таба, видео

Печатать
Просмотров: 142
Never Had the Courage

Standard Tuning

This is my first tab, and theres heaps of stuff that i cant figure out, but this is 
the skeleton. Now, someone who is better at tabbing can hopefully improve this (:

e---------------------------------------------------------|
B--7--7---4--4---3--3---2--2---3--3--3--3--4---4----------|
G---------------------------------------------------------|
D---------------------------------------------------------|
A---5------5-------2------0------2-----2------5-----------|
E---------------------------------------------------------|x3 (2nd "I've dialed your
 number..")(3rd "Hoping just to hear your voice..")

"I never had the courage.."
e---------------------------------------------------------|
B---------------------------------------------------------|
G-7--7--4--4--2--2--2--2----------------------------------|
D---------------------------------------------------------|
A--5------6----4---4--4--4--------------------------------|
E---------------------------------------------------------|x2 (2nd "To Finally make that call..")

"I've been missing you so much.. 
e---------------------------------------------------------|
B---------------------------------------------------------|
G-7--7--4--4--2--2----------------------------------------|
D---------------------------------------------------------|
A--5------6----4------------------------------------------|
E---------------------------------------------------------|

"..have you been missing me at all?"
e---------------------------------------------------------|
B---------------------------------------------------------|
G-2--2----2--2----4---4-----------------------------------|
D---------------------------------------------------------|
A--0--------4--4----6----6--------------------------------|
E---------------------------------------------------------|


e---------------------------------------------------------|
B--7--7---4--4---3--3---2--2---3--3--3--3--4--4-----------|
G---------------------------------------------------------|
D---------------------------------------------------------|
A---5------5-------2------0------2----2------5------------|
E---------------------------------------------------------|


"Need you here now more than ever before.."
e---------------------------------------------------------|
B--7--7---4--4---3--3---2--2---3--3--3--3--4--4-----------|
G---------------------------------------------------------|
D---------------------------------------------------------|
A---5------5-------2------0------2----2------5------------|
E---------------------------------------------------------|x2 (2nd "Cause if
 you're not by my side.."

"I never had the courage.."
e---------------------------------------------------------|
B---------------------------------------------------------|
G-7--7--4--4--2--2--2--2----------------------------------|
D---------------------------------------------------------|
A--5------6----4---4--4--4--------------------------------|
E---------------------------------------------------------|x2 (2nd "To tell you how i feel.."

"But honestly I've always loved you.. 
e---------------------------------------------------------|
B---------------------------------------------------------|
G-7--7--4--4--2--2----------------------------------------|
D---------------------------------------------------------|
A--5------6----4------------------------------------------|
E---------------------------------------------------------|

..and i promise i always will"
e---------------------------------------------------------|
B---------------------------------------------------------|
G-2--2----2--2----4---4-----------------------------------|
D---------------------------------------------------------|
A--0--------4--4----6----6--------------------------------|
E---------------------------------------------------------|

Then there is a melody that I could work out, but it'd take me quite some time.


"Don't take your time....... Coming home tonight
e-------------------------------------------------------|
B-7--7--7--7------4--4--4--4---2--2--2--2---2--2--2--2--|
G-------------------------------------------------------|
D-------------------------------------------------------|
A---5--5--5--5------6--6--6--6---4--4--4--4---0--0--0--0|
E-------------------------------------------------------|x2 (2nd "Cause every second wasted.."

"And with every breath i take i hope you'll find"
e---------------------------------------------------------|
B---------------------------------------------------------|
G-7--7--4--4--2--2--2--2--2--2----------------------------|
D---------------------------------------------------------|
A--5------6----4------0--0--0-----------------------------|
E---------------------------------------------------------|

"That I'm the boy you can't get of your mind.."
e---------------------------------------------------------|
B--7--7---4--4---3--3---2--2---3--3--3--3--4--4-----------|
G---------------------------------------------------------|
D---------------------------------------------------------|
A---5------5-------2------0------2----2------5------------|
E---------------------------------------------------------|

"I never had the courage.."
e---------------------------------------------------------|
B-7--7--4--4--2--2--2--2----------------------------------|
G---------------------------------------------------------|
D---------------------------------------------------------|
A--5------6----4---4--4--4--------------------------------|
E---------------------------------------------------------|x2 (2nd "To tell you this before.."

"Every day away from you..
e---------------------------------------------------------|
B-7--7--4--4--2--2----------------------------------------|
G---------------------------------------------------------|
D---------------------------------------------------------|
A--5------6----4------------------------------------------|
E---------------------------------------------------------|

..Just makes me love you more"
e---------------------------------------------------------|
B-2--2----2--2------7-------------------------------------|
G---------------------------------------------------------|
D---------------------------------------------------------|
A--0--------4--4----5-------------------------------------|
E---------------------------------------------------------|
Добавлено: 26.07.2012
Другие материалы по этой песне:
  • Аккорды и текст

Страница создана 24.04.2012
http://primanota.ru/chase-coy/never-had-the-courage-chords.htm
Привет, Гость.
Предлагаем пройти революционный курс по гитаре.
Подарок от PrimaNota.Ru, забирай!