PrimaNota.ru - самый крупный в мире бесплатный архив песенных текстов, аккордов, табулатур и нот


Chase Coy - Mockingbird - таба, видео

Регистрация Запомнить меня
Войти через:  Facebook Google Twitter Vk Yandex Mail.ru

Chase Coy - Mockingbird - таба, видео

Печатать
Просмотров: 185
"Mockingbird" by Chase Coy
Tabbed by Benjamin Gibb

VERSE:  (Listen to Song to get perfect timing.)

E---------------------------------------------|
B----------------------------------3-----3----|
G----2----2---0-----0---4-----4---------------|
D---------------------------------------------|
A---------------------------------------------|
E----3--3--3--3---3--3--3---3---3--3---3--3---|
 "Summer arrived when the mockingbird came to me


E-------------------------------------------------|
B-----------------------------------3------3------|
G----2-----2---0-----0----4-----4-----------------|
D-------------------------------------------------|
A----3---3--3--3---3---3--3---3-----3---3----3----|
E-------------------------------------------------|
 It sang a sweet melody, but couldn't seem to find the write words....."


CHORUS/ENDING:

          Em7               Dadd9              Cadd9
E----------------------------------------------------------------------------|
B----------3------------------3------------------3---------------------------|
G----------0------------------2------------------0---------------------------|
D----------2------------------0------------------2---------------------------|
A----------2------------------0------------------3---------------------------|
E----------0------------------2----------------------------------------------|
"I've been waiting so long for these words to come out, it's practically all I've
been thinking about.

E----------------------------------------------------------------------------|
B----------3------------------3------------------3---------------------------|
G----------0------------------2------------------0---------------------------|
D----------2------------------0------------------2---------------------------|
A----------2------------------0------------------3---------------------------|
E----------0------------------2----------------------------------------------|
  So thank you for finding the words I couldn't find on my own, now I'm not alone."


Lyrics:

Summer arrived on the back of a mockingbird.
It sang a sweet melody, but couldn't seem to find the right words.
I don't know if you've heard, but it's all over town,
Yeah they're buzzing about it now.
I was singing alone when the mockingbird came to me,
Perched on my windowsill, and hummed along quietly.
But before long she was singing along, and she said, yeah she said:

"I've been waiting so long for these words to come out,
It's practically all I've been thinking about.
So thank you for finding the words I couldn't find on my own,
Now I'm not alone."

Autumn was on it's way and summer was on it's way out;
The mockingbird told me: "I change with the seasons,"
And that she was leaving town in a few days now.
We said our goodbyes, and I secretly wished for more time,
But the seasons are merciless.
For a while we both stood in silence
Until she said:

"I've been waiting so long for these words to come out,
It's practically all I've been thinking about.
So thank you for finding the words I couldn't find on my own,
Now I'm not alone."
Добавлено: 14.07.2012
Другие материалы по этой песне:
  • Аккорды и текст

Страница создана 21.02.2012
http://primanota.ru/chase-coy/mockingbird-chords.htm
Привет, Гость.
Предлагаем пройти революционный курс по гитаре.
Подарок от PrimaNota.Ru, забирай!