PrimaNota.ru - самый крупный в мире бесплатный архив песенных текстов, аккордов, табулатур и нот


Chase Coy - Im Ready - таба, видео

Регистрация Запомнить меня
Войти через:  Facebook Google Twitter Vk Yandex Mail.ru

Chase Coy - Im Ready - таба, видео

Печатать
Просмотров: 141
Artist:  Chase Coy
Title:   I'm Ready



E---------------------------------------------------------|
B-----3-------3------3--------3--------3-------3----------|
G-------2----2-2-2-----2-0h2-2-2-2------2-2---2-2-2-------|
D--0-------------------------------0-0--------------------|
A---------------------------------------------------------|
E---------2--------3------------------------2-------3-----|

   We sit in your tree house...
E------------------------------------------------------------|
B-----3-------3------------3------3------3------3------------|
G-------2----2-2-2---0------2-2----2-2----2-2----2-2---2-----|
D--0----------------0-0---------0-----------------------2-2--|
A-----------------------0----------------------------0-------|
E---------2--------3-------------------2------3--------------|

   I lean close and whisper...
E------------------------------------------------------------|
B-----3-------3------------3------3------3------3------3-----|
G-------2----2-2-2---0------2-2----2-2----2-2----2-2----2-2--|
D--0----------------0-0---------0----------------------------|
A-----------------------0----------------------------0-------|
E---------2--------3-------------------2------3--------------|

   breeze...
E--------------------------------------------------------|
B-----3------3-----------------3-------3------3----------|
G------2-2--2-2-2---2p0-0-0h2-2-2-2---2-2-2----2-2-------|
D--0--------------------------------0--------------------|
A--------------------------------------------------------|
E----------2------3-------------------------2------3-----|

   For the first time, I feel...
E--------------------------------------------------------|
B-----3-----3-----------3-------3------3-----------3-----|
G----2-2-----2----2------2-2---2-2-2----2-----2-----2-2--|
D----------------0---------------------------0-----------|
A--2------0----------0-------2-------0-----------0-------|
E--------------0---------------------------3-------------|

   forward. I'm finally ready...
E-------------------------------------------------------------|
B----0-----3--------------------3------3----------------3-----|
G---------2--2----2-----2-2----2-2----2-2----2-2-0-0h2-2-2-2--|
D-----------0----0---0--------------0-------------------------|
A--2----0-----------------------------------------------------|
E--------------3-------------2-------------3------------------|


E--------------------------------------------------------|
B------3-----3----------------3-------3------3-----------|
G-----2-2---2-2-2----2-2-0h2-2-2-2-----2-2--2-2-2--------|
D--0-------------------------------0-0-------------------|
A--------------------------------------------------------|
E---------2--------3-----------------------2------3------|

   I don't know if you've noticed but...
E------------------------------------------------------------|
B----3-----3-------3----3----3-------3--------3--------------|
G-----2---2-2-2---2-2----2----2-2---2-2-2----2-2-2-----2-----|
D--0-----------------------0--------------------------2-2-2--|
A---------------------0-----------------------------0--------|
E--------2------3-----------------2--------3-----------------|

   That one day I might wake up...
E-------------------------------------------------------------------|
B-----3-----3-------3-------3-------3-------3-----------------3-----|
G----2-2---2-2-2---2-2-2---2-2-2---2-2-2---2-2-2---2p0-0-0h2-2-2-2--|
D--0-----------------------------0----------------------------------|
A------------------------0------------------------------------------|
E--------2-------3-----------------------2-------3------------------|


E-------------------------------|
B-----3-----3------3------3-----|
G----2-2---2-2--------2----2-2--|
D--0----------------------------|
A-------------------------------|
E--------2------3---------------|

   For the first time, I feel like...
E--------------------------------------------------------|
B-----3-----3-----------3-------3------3------3----3-----|
G----2-2-----2----2------2-2---2-2-2----2-----------2-2--|
D----------------0---------------------------0-----------|
A--2------0----------0-------2-------0-----------0-------|
E--------------0---------------------------3-------------|

   forward. I'm finally ready...
E----------------------------------------------------------|
B-----3-----3----------3-------3----3----------------------|
G----2-2---2-2----2-----2-2---2----2---------2-2-----2-----|
D----------------0--------------------------2-2-0h2-2-2-2--|
A--2-----0-----------0-------------------0-----------------|
E--------------3------------2----2----2-3------------------|


E----------------------------------------0--------------------------|
B-----5h7-3----7p5-------3--------3-------3---2---------------3-----|
G--------------------------2-0h2-2-2-2---------2---2-2-2-0h2-2-2-2--|  x2
D--0-0-------------0---0--------------------------------------------|
A-------------0------------------------2----0-----------------------|
E-----------2--------3---------------------------3------------------|


E--------------------------------------|
B-------------3----------------3-------|
G----2-2-0h2-2-2-2----2-2-0h2-2-2-2----|
D--------------------------------------|
A--------------------------------------|
E--3----------------3---------------3--|

   For the first time, I feel like...
E---------------------------------------------------------|
B-----------3---------------------------------------------|
G-----2----2-2-2----2----2-2-------2-----2----2-----2-----|
D----0----------------0-----0-0------------------0---0-0--|
A--2----------------------------2----2-0---2--------------|
E--------0--------3-------------------------3-------------|

   forward. I'm finally ready...
E--------------------------------------------------------|
B--------------------------------------------------------|
G-----2-----2-----2---2-2-2-------2-2----2---------------|
D----0-----2-----0---0-----0-0---------0---0-------------|
A--2-----0-----------------------------------------------|
E--------------3----------------2-----------3------------|


LYRICS

We sit in your tree house.
The view from the top floor.
The moon shining through all the leaves and the trees.
I lean close and whisper;
'Can we stay here forever? Out here in your backyard? Just us in the autumn breeze.'

For the first time,
I feel like I'm at a loss for words.
There's nothing left to do but move forward.
I'm finally ready for something good.

I don't know if you've noticed but I'm trying not show that I'm scared.
That one day I might wake up and realize that you are not there.

For the first time,
I feel like I'm at a loss for words.
There's nothing left to do but move forward.
I'm finally ready for something good.
(repeat once more)
Добавлено: 04.03.2012
Другие материалы по этой песне:
  • Аккорды и текст

Страница создана 04.03.2012
http://primanota.ru/chase-coy/im-ready-chords.htm
Привет, Гость.
Предлагаем пройти революционный курс по гитаре.
Подарок от PrimaNota.Ru, забирай!