PrimaNota.ru - самый крупный в мире бесплатный архив песенных текстов, аккордов, табулатур и нот


Chase Coy - If The Moon Feel Down Tonight - таба, видео

Регистрация Запомнить меня
Войти через:  Facebook Google Twitter Vk Yandex Mail.ru

Chase Coy - If The Moon Feel Down Tonight - таба, видео

Печатать
Просмотров: 180
this is my first tab be nice!!!
this is how I hear it, I have only been playing guitar and teaching my self for 8 months now :)


           C                 G                   F             G
|------------------------------------------------1-------------------------|
|-------------1---1------------0---0-------------1--------------0--0-------|
|--------------0---0------------0---0------------2---------------0--0------|
|------0h2-2----2---2--------0---0---0-----------3------------0---0--0-----|
|---3--------------------0h2---------------------3--------0h2--------------|
|----------------------3-------------------------1------3------------------|

       Every time i     it makes my heart  evern though  hoping this will 
       see your smile   beat fast          its too soon  last
                                           too tell i'm

           C                 G                   F             G
|------------------------------------------------1-------------------------|
|-------------1---1------------0---0-------------1--------------0--0-------|
|--------------0---0------------0---0------------2---------------0--0------|
|------0h2-2----2---2--------0---0---0-----------3------------0---0--0-----|
|---3--------------------0h2---------------------3--------0h2--------------|
|----------------------3-------------------------1------3------------------|


Am F x2     Am G C


           C                 G                   F             G
|------------------------------------------------1-------------------------|
|-------------1---1------------0---0-------------1--------------0--0-------|
|--------------0---0------------0---0------------2---------------0--0------|
|------0h2-2----2---2--------0---0---0-----------3------------0---0--0-----|
|---3--------------------0h2---------------------3--------0h2--------------|
|----------------------3-------------------------1------3------------------|
x2



Am F C x2      C G Am G F G

Am F x2   Am G C

           C                 G                   F             G
|------------------------------------------------1-------------------------|
|-------------1---1------------0---0-------------1--------------0--0-------|
|--------------0---0------------0---0------------2---------------0--0------|
|------0h2-2----2---2--------0---0---0-----------3------------0---0--0-----|
|---3--------------------0h2---------------------3--------0h2--------------|
|----------------------3-------------------------1------3------------------|

Добавлено: 22.07.2012
Другие материалы по этой песне:
  • Аккорды и текст

Страница создана 22.07.2012
http://primanota.ru/chase-coy/if-the-moon-feel-down-tonight-chords.htm
Привет, Гость.
Предлагаем пройти революционный курс по гитаре.
Подарок от PrimaNota.Ru, забирай!