PrimaNota.ru - самый крупный в мире бесплатный архив песенных текстов, аккордов, табулатур и нот


Charly Garcia - De Mi - аккорды и текст, таба, видео

Регистрация Запомнить меня
Войти через:  Facebook Google Twitter Vk Yandex Mail.ru

Charly Garcia - De Mi - аккорды и текст, таба, видео

Печатать
Просмотров: 220
Авторы: Charly García

De Mi
Charly Garcia
Intro

e-------------------------------------------------------
b--3h5p3-3s12------12------12----1h3p1-1s8-----8-----8-- |
g-------------0-12----0-12----12-----------0-7---0-7---7 | X 4
d------------------------------------------------------- |
a------------------------------------------------------- |
E-------------------------------------------------------/

D C G

G                             C  G   Riff 1
Cuando estes mal cuando estes sola
G                        C   Bb
cuando ya estes cansada de llorar
Em                D        F           C          G  Riff 2 D C G
no te olvides de mi porque se que te puedo estimular
                      C  G  Riff 1 D C G
cuando me mires a los ojos
                       C    G
y mi mirada este en otro lugar
Em                D        F           C          G  Riff 2 y 3
no te acerques a mi porque se que te puedo lastimar

C                      Bb
no pienses que estoy loco
Riff 4
es solo una manera de actuar
C                      Bb
no pienses que estoy solo
A7                   D7
estoy comunicado con todo lo demas
        G
por eso!

G                             C  G   Riff 1
Cuando estes mal cuando estes sola
G                        C   Bb
cuando ya estes cansada de llorar
Em                D        F           C          G  Riff 2 D C G
no te olvides de mi porque se que te puedo estimular

C    Bb    G

C   Bb     A7     D7

e--------------------------------------------------------10s12-10---------
b--10-12-10-12-10-12----10s13-10----10-12-10-12-10-12-------------11-10---
g--------------------12----------12-------------------12----------------12
d-------------------------------------------------------------------------
a-------------------------------------------------------------------------
E-------------------------------------------------------------------------
Em                D        F           C          G
no te olvides de mi porque se que te puedo estimular

e--3-5s7-5-3-5--0-3-6--0-3-6-0-6-0-3--
b-------------------------------------
g-------------------------------------
d-------------------------------------
a-------------------------------------
E-------------------------------------


e-------------------------------------------------------
b--3h5p3-3s12------12------12----1h3p1-1s8-----8-----8-- |
g-------------0-12----0-12----12-----------0-7---0-7---7 | X 2
d------------------------------------------------------- |
a------------------------------------------------------- |
E-------------------------------------------------------/


riff 1:     riff 2:     riff 3:     riff 4:


e-------|   e---------| e-------|   e--3-1-3-3-3-3s5s3-3-3-3s1|
b-------|   b--------0| b--0-1-3|   b-------------------------|
g-------|   g--0-0----| g-------|   g-------------------------|
d--0-3-5|   d------3--| d-------|   d-------------------------|
a-------|   a---------| a-------|   a-------------------------|
E-------|   E---------| E-------|   E-------------------------|


Bueno aca les esta exelente cancion del mas grande

cuidense
Добавлено: 12.09.2014
Другие материалы по этой песне:
  • Аккорды и текст

Страница создана 05.07.2012
http://primanota.ru/charly-garcia/de-mi-chords.htm
Привет, Гость.
Предлагаем пройти революционный курс по гитаре.
Подарок от PrimaNota.Ru, забирай!