PrimaNota.ru - самый крупный в мире бесплатный архив песенных текстов, аккордов, табулатур и нот


Charlotte Oc - Just Like You Love Me Again - таба, видео

Регистрация Запомнить меня
Войти через:  Facebook Google Twitter Vk Yandex Mail.ru

Charlotte Oc - Just Like You Love Me Again - таба, видео

Печатать
Просмотров: 37
Charlotte O'Connor / Just Like You Love Me Again

----------------------------------------------------------------|
---0-------------------------------3----------------------------|
--------2--------2---------------------0--------0---------------|
-------------0--------0---------------------0-------------------|
-----------------------------------2----------------------------|
---3------------------------------------------------------------|


---3---------3---2--------------------0----------------------------|
--------0--------------0-------------------------------------------|
----------------------------0----------------0----------0--2-------|
---2-------------0-------------------------------0-----------------|
--------------------------------------3----------------------------|
-------------------------------------------------------------------|


----------------------------------------------------------------|
---0-------------------------------3----------------------------|
--------2--------2---------------------0--------0---------------|
-------------0--------0---------------------0-------------------|
-----------------------------------2----------------------------|
---3------------------------------------------------------------|

Perfume hits me like a bullet,     shoots into my stomach


---3---------3---2--------------------0----------------------------|
--------0--------------0-------------------------------------------|
----------------------------0----------------0----------0--2-------|
---2-------------0--------------------------------0----------------|
--------------------------------------3----------------------------|
-------------------------------------------------------------------|

Dragonflies they come alive       inside    of   me


----------------------------------------------------------------|
---0-------------------------------3----------------------------|
--------2--------2---------------------0--------0---------------|
-------------0--------0---------------------0-------------------|
-----------------------------------2----------------------------|
---3------------------------------------------------------------|

I close my eyes and see you walking, when you hear me calling


---3---------3---2--------------------3----------------------------|
--------0--------------0----------------------0--------------------|
----------------------------0-----------------------0--------------|
---2-------------0-------------------------------------------------|
--------------------------------------4----------------------------|
-------------------------------------------------------------------|

You turn around and through the crowd and hold me


---------------------------------------------------------------|
---1---------------1--------------3-----3-----3----------------|
---------0--------------0-----------------------------0--------|
--------------2------------------------------------------------|
---0------------------------------3-----2-----0----------------|
---------------------------------------------------------------|

And I know it's all pretend, but it feels just like you love me


---------------------------------------------------------------------|
----3-----------------3--------------3---------------3---------------|
-----------0----------------0--------------0-----------------0-------|
-----------------0-------------------------------0-------------------|
-------------------------------------3-------------------------------|
----3----------------------------------------------------------------|

again


---------------------------------------------------------------------|
----3-----------------3--------------3---------------3---------------|
-----------0----------------0--------------0-----------------0-------|
-----------------0-------------------------------0-------------------|
-------------------------------------3-------------------------------|
----3----------------------------------------------------------------|

-------------------------------------------------------------------|
---0-------------------------------3-------------3-----------------|
--------2--------2---------------------0--------------0------------|
-------------0--------0---------------------0----------------------|
-----------------------------------2-------------------------------|
---3---------------------------------------------------------------|

As I watch the lips move on his face I focus on the music


---3---------3---2--------------------0----------------------------|
--------0--------------0-------------------------------------------|
----------------------------0----------------0----------0----------|
---2-------------0-------------------------------0-----------------|
--------------------------------------3----------------------------|
-------------------------------------------------------------------|

I know I should be laughing  at     these   jokes


-----------------------------------------------------------------|
---0-------------------------------3---------------3-------------|
--------2--------2---------------------0-----------------0-------|
-------------0--------0---------------------0--------------------|
-----------------------------------2-----------------------------|
---3-------------------------------------------------------------|

Every time I hear John Lennon, I can't help but imagine

---3---------3---2--------------------3----------------------------|
--------0--------------0----------------------0--------------------|
----------------------------0-----------------------0--------------|
---2-------------0-------------------------------------------------|
--------------------------------------4----------------------------|
-------------------------------------------------------------------|

The way you sound when you sing out loud in front of me


---------------------------------------------------------------|
---1-------------------------------3-----3-----3---------------|
---------0--------------------------------------------0--------|
--------------2------------------------------------------------|
---0-------------------------------3-----2-----0---------------|
---------------------------------------------------------------|

Till the song gets to the end, it feels just like you love me


-------------------------------------------------------------------------|
----3---------------------------------3----------------------------------|
-----------0----------------0---------------0---------0-----------0------|
-----------------0-------------------------------------------------------|
-------------------------------------------------------------------------|
----3-----------------3---------------3-----------3----------2-----------|

again

----------------------------------------------------------------|
--3--------------3--------------3-----------------3-------------|
-------0---------------0---------------0----------------0-------|
------------2---------------------------------2-----------------|
----------------------------------------------------------------|
--0-----------------------------0-------------------------------|

            When I look back              on what I had

----------------------------------------------------------------------|
--3---------------3-----------------3---------------3-----------------|
-------0---------------0------------------0---------------0-----------|
------------2----------------2-----------------2----------------------|
--3---------------------------------3---------------------------3-----|
----------------------------------------------------------------------|

   I can't believe I thought that I could be better than you


--------------------------------------------------------------|
--1---------------1-------------3-----------------------------|
--------0-------------0---------------0---------0-------------|
-------------2------------------------------0-----------------|
--0-----------------------------2--------------------2--------|
--------------------------------------------------------------|

                 The only thing that gets me through


------------------------------------------------------------------|
--1----------------1--------------3-------------------------------|
--------0----------------0--------------------0----------0--------|
-------------2---------------------------4----------4-------------|
--3----------------3--------------5-------------------------------|
------------------------------------------------------------------|

Is faking it             like     I      do


----------------------------------------------------------------|
---0-------------------------------3----------------------------|
--------2--------2---------------------0--------0---------------|
-------------0--------0---------------------0-------------------|
-----------------------------------2----------------------------|
---3------------------------------------------------------------|

Perfume hits me like a bullet,     shoots into my stomach


---3---------3---2--------------------3----------------------------|
--------0--------------0----------------------0--------------------|
----------------------------0-----------------------0--------------|
---2-------------0-------------------------------------------------|
--------------------------------------4----------------------------|
-------------------------------------------------------------------|

And dragonflies they come alive       inside of me


---------------------------------------------------------------|
---1-------------------------------3-----3-----3---------------|
---------0--------------------------------------------0--------|
--------------2------------------------------------------------|
---0-------------------------------3-----2-----0---------------|
---------------------------------------------------------------|

Ant it breaks down my defence,   feels just like you love me


---------------------------------------------------------------|
---1-------------------------------3-----3-----3---------------|
---------0--------------------------------------------0--------|
--------------2------------------------------------------------|
---0-------------------------------3-----2-----0---------------|
---------------------------------------------------------------|

Like we'll never reach the end,    it feels just like you love me


------------------------------|
--3---------------------------|
------------------------------|
------------------------------|
------------------------------|
--3---------------------------|

again

This tab is not 100% correct. The many variations on the arpeggios are not transcribed 
But I tried to stay close to the overall spirit of the song. Enjoy. An outstanding song 
an outstanding artist.

http://profile.myspace.com/index.cfm?fuseaction=user.viewprofile&friendid=107026039
Добавлено: 08.05.2016
Другие материалы по этой песне:
  • Аккорды и текст

Страница создана 08.05.2016
http://primanota.ru/charlotte-oc/just-like-you-love-me-again-chords.htm
Привет, Гость.
Предлагаем пройти революционный курс по гитаре.
Подарок от PrimaNota.Ru, забирай!