PrimaNota.ru - самый крупный в мире бесплатный архив песенных текстов, аккордов, табулатур и нот


Charlotte Elliott - Just As I Am - таба, видео

Регистрация Запомнить меня
Войти через:  Facebook Google Twitter Vk Yandex Mail.ru

Charlotte Elliott - Just As I Am - таба, видео

Печатать
Просмотров: 35
Авторы текста: Charlotte Elliott
-------------------------------------------------------------------------------
                             just as i am - charlotte Eliott
-------------------------------------------------------------------------------
Tabbed by:
E-mail:
key of c
Tuning:E-A-D-G-B-e

e|---------------------------------------------------------------------------|
B|---------------------------------------------------------------------------|
G|------------0--------------------0----0-------------2----2---0-------------|
D|-----0--2-2-2-3--2--0-2-3----2---2----0-0-2----3----3----3---2--2----0---2-|
A|--3-----3-3---5--3--2-3-5----3------------3----5----------------3--3-----3-|
E|---------------------------------------------------------------------------|
    just as i am without one plea but that thy blood was shed for me and that 
e|---------------------------------------------------------------------------|
B|--------------------------1-0----------------------------------------------|
G|-------0-----------2----2------2---0---0-0----------0----------------------|
D|----2--2----3---2-------3-3----3---2---2-2-3-2---0------2------------------|
A|----3-------5---3--3-----------------------5-3---2--2---3------------------|
E|---------------------------------------------------------------------------|
    thou bidd'st me come to thee o Lamb of God i come i come 



************************************

| /   slide up
| \   slide down
| h   hammer-on
| p   pull-off
| ~   vibrato
| +   harmonic
| x   Mute note
| b   Bend
| pb  Pre-bend
| br  Bend release
| pbr Pre-bend release
| brb Bend release bend

************************************
Добавлено: 09.10.2015
Другие материалы по этой песне:
  • Аккорды и текст

Страница создана 09.10.2015
http://primanota.ru/charlotte-elliott/just-as-i-am-chords.htm
Привет, Гость.
Предлагаем пройти революционный курс по гитаре.
Подарок от PrimaNota.Ru, забирай!