PrimaNota.ru - самый крупный в мире бесплатный архив песенных текстов, аккордов, табулатур и нот


Charlotte Dipanda - Coucou - таба, видео

Регистрация Запомнить меня
Войти через:  Facebook Google Twitter Vk Yandex Mail.ru

Charlotte Dipanda - Coucou - таба, видео

Печатать
Просмотров: 94
                                                                   
The lyrics are available on the website of charlotte DIPANDA www.charlottedipanda.com


Guitare A



      E                           A                           B                
      Q    E  Q    E     E  E     Q    E  Q    E     E  E     Q    E  Q    E   
E||-----------0-------|--------|----------0-------|--------|----------2-------|
B||--------0-------0--|-----0--|-------2-------2--|-----2--|-------4-------4--|
G||*--1---------------|--1-----|--2---------------|--2-----|--4---------------|
D||*------------------|--------|------------------|--------|------------------|
A||-------------------|--------|------------------|--------|------------------|
E||-------------------|--------|------------------|--------|------------------|


  E  E     Q    E  Q    E     E  E     Q    E  Q    E     E  E   
--------|----------0-------|--------|----------0-------|--------|
-----4--|-------0-------0--|-----0--|-------0-------0--|-----0--|
--4-----|--1---------------|--1-----|--1---------------|--1-----|
--------|------------------|--------|------------------|--------|
--------|------------------|--------|------------------|--------|
--------|------------------|--------|------------------|--------|


  Q    E  Q    E     E  E     Q    E  E  Q       E  E     Q    E  Q    E   
----------0-------|--------|----------2-------|--------|----------0-------|
-------2-------2--|-----2--|-------4----------|-----4--|-------0-------0--|
--2---------------|--2-----|--4---------------|--4-----|--1---------------|
------------------|--------|-------------4----|--------|------------------|
------------------|--------|------------------|--------|------------------|
------------------|--------|------------------|--------|------------------|


  E  E       E  E  E  E  E  E     E  E  E  E  E  E     E  E  E  E  E  E   
---------||--------0-----------|--0--------------0--|--------------------|
-----0---||-----0-----0-----0--|-----0--------2-----|--2-----------------|
--1-----*||--1-----------------|-----------2--------|-----2-----2-----4--|
--------*||--------------2-----|--------2-----------|--------2-----4-----|
---------||--------------------|--------------------|--------------------|
---------||--------------------|--------------------|--------------------|


  E  E   E  E  E  E     E  E  E  E  E  E     E  E     E  E  E  E  E  E   
-----2p--0-----------|-----------0--------|--------|--------0-----------|
--4---------4--------|--------0-----0-----|--------|-----0-----0-----0--|
---------------4-----|-----1-----------1--|-----1--|--------------------|
------------------4--|--2-----------------|--2-----|--2-----------2-----|
---------------------|--------------------|--------|--------------------|
---------------------|--------------------|--------|--------------------|


  E  E  E  E  E  E     E  E  E  E  E  E     E  E   E  E  E  E   
--0--------------0--|--------------------|-----2p--0-----------|
-----0--------2-----|--2-----------------|--4---------4--------|
-----------2--------|-----2-----2-----4--|---------------4-----|
--------2-----------|--------2-----4-----|------------------4--|
--------------------|--------------------|---------------------|
--------------------|--------------------|---------------------|


  E  E  E  E  E  E     E  E                                                   
-----------0--------|--------|-----|-----|-----|-----|-----|-----|-----|-----|
--------0-----0-----|--------|-----|-----|-----|-----|-----|-----|-----|-----|
-----1-----------1--|-----1--|-----|-----|-----|-----|-----|-----|-----|-----|
--2-----------------|--2-----|-----|-----|-----|-----|-----|-----|-----|-----|
--------------------|--------|-----|-----|-----|-----|-----|-----|-----|-----|
--------------------|--------|-----|-----|-----|-----|-----|-----|-----|-----|


-----|-----|-----|------||
-----|-----|-----|------||
-----|-----|-----|-----*||
-----|-----|-----|-----*||
-----|-----|-----|------||
-----|-----|-----|------||





Duration Legend
---------------
W - whole
H - half
Q - quarter
E - 8th
S - 16th
T - 32nd
X - 64th
. - note dotted
|-n-|  - n-tuplets


Tablature Legend
----------------
L - tied note
x - dead note
g - grace note
(n) - ghost note
> - accentuded note
NH - natural harmonic
AH - artificial harmonic
TH - tapped harmonic
SH - semi harmonic
PH - pitch harmonic
h - hammer on
p - pull off
b - bend
br - bendRelease
pb - preBend
pbr - preBendRelease
brb - bendReleaseBend
\n/ - tremolo bar dip
\n - tremolo bar dive
-/n - tremolo bar Release up
/n\ - tremolo bar inverted dip
/n - tremolo bar return
-\n - tremolo bar Release down
S - shift slide
s - legato slide
/ -  slide into from below or out of upwards
\ -  slide into from above or out of downwards
~ - vibrato
W - wide vibrato
tr - trill
TP - tremolo picking
T - tapping
S - slap
P - pop
< - fade in
^ - brush up
v - brush down
Добавлено: 15.07.2013
Другие материалы по этой песне:
  • Аккорды и текст

Страница создана 15.07.2013
http://primanota.ru/charlotte-dipanda/coucou-chords.htm
Привет, Гость.
Предлагаем пройти революционный курс по гитаре.
Подарок от PrimaNota.Ru, забирай!